  0
SECTION
  2
HEADER
  9
$ACADVER
  1
AC1015
  9
$ACADMAINTVER
 70
     6
  9
$DWGCODEPAGE
  3
ANSI_1252
  9
$INSBASE
 10
0.0
 20
0.0
 30
0.0
  9
$EXTMIN
 10
64.8585557938
 20
0.8190749451
 30
0.0
  9
$EXTMAX
 10
85.7289156824
 20
29.7090686329
 30
0.0
  9
$LIMMIN
 10
0.0
 20
0.0
  9
$LIMMAX
 10
420.0
 20
297.0
  9
$ORTHOMODE
 70
     0
  9
$REGENMODE
 70
     1
  9
$FILLMODE
 70
     1
  9
$QTEXTMODE
 70
     0
  9
$MIRRTEXT
 70
     1
  9
$LTSCALE
 40
1.0
  9
$ATTMODE
 70
     1
  9
$TEXTSIZE
 40
3.5
  9
$TRACEWID
 40
1.0
  9
$TEXTSTYLE
  7
Standard
  9
$CLAYER
  8
0
  9
$CELTYPE
  6
ByLayer
  9
$CECOLOR
 62
   256
  9
$CELTSCALE
 40
1.0
  9
$DISPSILH
 70
     0
  9
$DIMSCALE
 40
1.0
  9
$DIMASZ
 40
3.302
  9
$DIMEXO
 40
1.0
  9
$DIMDLI
 40
3.75
  9
$DIMRND
 40
0.0
  9
$DIMDLE
 40
0.0
  9
$DIMEXE
 40
1.0
  9
$DIMTP
 40
0.0
  9
$DIMTM
 40
0.0
  9
$DIMTXT
 40
3.5
  9
$DIMCEN
 40
2.5
  9
$DIMTSZ
 40
0.0
  9
$DIMTOL
 70
     0
  9
$DIMLIM
 70
     0
  9
$DIMTIH
 70
     1
  9
$DIMTOH
 70
     1
  9
$DIMSE1
 70
     0
  9
$DIMSE2
 70
     0
  9
$DIMTAD
 70
     1
  9
$DIMZIN
 70
     0
  9
$DIMBLK
  1

  9
$DIMASO
 70
     1
  9
$DIMSHO
 70
     1
  9
$DIMPOST
  1

  9
$DIMAPOST
  1

  9
$DIMALT
 70
     0
  9
$DIMALTD
 70
     3
  9
$DIMALTF
 40
0.0393700787
  9
$DIMLFAC
 40
1.0
  9
$DIMTOFL
 70
     1
  9
$DIMTVP
 40
0.0
  9
$DIMTIX
 70
     0
  9
$DIMSOXD
 70
     0
  9
$DIMSAH
 70
     0
  9
$DIMBLK1
  1

  9
$DIMBLK2
  1

  9
$DIMSTYLE
  2
ISO-25
  9
$DIMCLRD
 70
     0
  9
$DIMCLRE
 70
     0
  9
$DIMCLRT
 70
     0
  9
$DIMTFAC
 40
1.0
  9
$DIMGAP
 40
1.524
  9
$DIMJUST
 70
     0
  9
$DIMSD1
 70
     0
  9
$DIMSD2
 70
     0
  9
$DIMTOLJ
 70
     0
  9
$DIMTZIN
 70
     0
  9
$DIMALTZ
 70
     0
  9
$DIMALTTZ
 70
     0
  9
$DIMUPT
 70
     0
  9
$DIMDEC
 70
     2
  9
$DIMTDEC
 70
     2
  9
$DIMALTU
 70
     2
  9
$DIMALTTD
 70
     3
  9
$DIMTXSTY
  7
Standard
  9
$DIMAUNIT
 70
     0
  9
$DIMADEC
 70
     2
  9
$DIMALTRND
 40
0.0
  9
$DIMAZIN
 70
     0
  9
$DIMDSEP
 70
    44
  9
$DIMATFIT
 70
     3
  9
$DIMFRAC
 70
     0
  9
$DIMLDRBLK
  1

  9
$DIMLUNIT
 70
     2
  9
$DIMLWD
 70
    -2
  9
$DIMLWE
 70
    -2
  9
$DIMTMOVE
 70
     0
  9
$LUNITS
 70
     2
  9
$LUPREC
 70
     2
  9
$SKETCHINC
 40
1.0
  9
$FILLETRAD
 40
10.0
  9
$AUNITS
 70
     0
  9
$AUPREC
 70
     2
  9
$MENU
  1
.
  9
$ELEVATION
 40
0.0
  9
$PELEVATION
 40
0.0
  9
$THICKNESS
 40
0.0
  9
$LIMCHECK
 70
     0
  9
$CHAMFERA
 40
0.0
  9
$CHAMFERB
 40
0.0
  9
$CHAMFERC
 40
0.0
  9
$CHAMFERD
 40
0.0
  9
$SKPOLY
 70
     0
  9
$TDCREATE
 40
2457947.946923588
  9
$TDUCREATE
 40
2457947.717756921
  9
$TDUPDATE
 40
2457947.946962824
  9
$TDUUPDATE
 40
2457947.717796158
  9
$TDINDWG
 40
0.0000000116
  9
$TDUSRTIMER
 40
0.0000000116
  9
$USRTIMER
 70
     1
  9
$ANGBASE
 50
0.0
  9
$ANGDIR
 70
     0
  9
$PDMODE
 70
     0
  9
$PDSIZE
 40
-1.0
  9
$PLINEWID
 40
0.0
  9
$SPLFRAME
 70
     0
  9
$SPLINETYPE
 70
     6
  9
$SPLINESEGS
 70
     8
  9
$HANDSEED
  5
18F
  9
$SURFTAB1
 70
     6
  9
$SURFTAB2
 70
     6
  9
$SURFTYPE
 70
     6
  9
$SURFU
 70
     6
  9
$SURFV
 70
     6
  9
$UCSBASE
  2

  9
$UCSNAME
  2

  9
$UCSORG
 10
0.0
 20
0.0
 30
0.0
  9
$UCSXDIR
 10
1.0
 20
0.0
 30
0.0
  9
$UCSYDIR
 10
0.0
 20
1.0
 30
0.0
  9
$UCSORTHOREF
  2

  9
$UCSORTHOVIEW
 70
     0
  9
$UCSORGTOP
 10
0.0
 20
0.0
 30
0.0
  9
$UCSORGBOTTOM
 10
0.0
 20
0.0
 30
0.0
  9
$UCSORGLEFT
 10
0.0
 20
0.0
 30
0.0
  9
$UCSORGRIGHT
 10
0.0
 20
0.0
 30
0.0
  9
$UCSORGFRONT
 10
0.0
 20
0.0
 30
0.0
  9
$UCSORGBACK
 10
0.0
 20
0.0
 30
0.0
  9
$PUCSBASE
  2

  9
$PUCSNAME
  2

  9
$PUCSORG
 10
0.0
 20
0.0
 30
0.0
  9
$PUCSXDIR
 10
1.0
 20
0.0
 30
0.0
  9
$PUCSYDIR
 10
0.0
 20
1.0
 30
0.0
  9
$PUCSORTHOREF
  2

  9
$PUCSORTHOVIEW
 70
     0
  9
$PUCSORGTOP
 10
0.0
 20
0.0
 30
0.0
  9
$PUCSORGBOTTOM
 10
0.0
 20
0.0
 30
0.0
  9
$PUCSORGLEFT
 10
0.0
 20
0.0
 30
0.0
  9
$PUCSORGRIGHT
 10
0.0
 20
0.0
 30
0.0
  9
$PUCSORGFRONT
 10
0.0
 20
0.0
 30
0.0
  9
$PUCSORGBACK
 10
0.0
 20
0.0
 30
0.0
  9
$USERI1
 70
     0
  9
$USERI2
 70
     0
  9
$USERI3
 70
     0
  9
$USERI4
 70
     0
  9
$USERI5
 70
     0
  9
$USERR1
 40
0.0
  9
$USERR2
 40
0.0
  9
$USERR3
 40
0.0
  9
$USERR4
 40
0.0
  9
$USERR5
 40
0.0
  9
$WORLDVIEW
 70
     1
  9
$SHADEDGE
 70
     3
  9
$SHADEDIF
 70
    70
  9
$TILEMODE
 70
     1
  9
$MAXACTVP
 70
    64
  9
$PINSBASE
 10
0.0
 20
0.0
 30
0.0
  9
$PLIMCHECK
 70
     0
  9
$PEXTMIN
 10
1.0000000000E+20
 20
1.0000000000E+20
 30
1.0000000000E+20
  9
$PEXTMAX
 10
-1.0000000000E+20
 20
-1.0000000000E+20
 30
-1.0000000000E+20
  9
$PLIMMIN
 10
0.0
 20
0.0
  9
$PLIMMAX
 10
420.0
 20
297.0
  9
$UNITMODE
 70
     0
  9
$VISRETAIN
 70
     1
  9
$PLINEGEN
 70
     0
  9
$PSLTSCALE
 70
     1
  9
$TREEDEPTH
 70
  3020
  9
$CMLSTYLE
  2
Standard
  9
$CMLJUST
 70
     0
  9
$CMLSCALE
 40
20.0
  9
$PROXYGRAPHICS
 70
     1
  9
$MEASUREMENT
 70
     1
  9
$CELWEIGHT
370
    -1
  9
$ENDCAPS
280
     0
  9
$JOINSTYLE
280
     0
  9
$LWDISPLAY
290
     1
  9
$INSUNITS
 70
     4
  9
$HYPERLINKBASE
  1

  9
$STYLESHEET
  1

  9
$XEDIT
290
     1
  9
$CEPSNTYPE
380
     0
  9
$PSTYLEMODE
290
     1
  9
$FINGERPRINTGUID
  2
{8FADFAD8-4466-4F98-BFA3-3CC4C3BDCAA1}
  9
$VERSIONGUID
  2
{FAEB1C32-E019-11D5-929B-00C0DF256EC4}
  9
$EXTNAMES
290
     1
  9
$PSVPSCALE
 40
0.0
  9
$OLESTARTUP
290
     0
  0
ENDSEC
  0
SECTION
  2
CLASSES
  0
CLASS
  1
ACDBDICTIONARYWDFLT
  2
AcDbDictionaryWithDefault
  3
ObjectDBX Classes
 90
        0
280
     0
281
     0
  0
CLASS
  1
VISUALSTYLE
  2
AcDbVisualStyle
  3
ObjectDBX Classes
 90
     4095
280
     0
281
     0
  0
CLASS
  1
MATERIAL
  2
AcDbMaterial
  3
ObjectDBX Classes
 90
     1153
280
     0
281
     0
  0
CLASS
  1
SCALE
  2
AcDbScale
  3
ObjectDBX Classes
 90
     1153
280
     0
281
     0
  0
CLASS
  1
TABLESTYLE
  2
AcDbTableStyle
  3
ObjectDBX Classes
 90
     4095
280
     0
281
     0
  0
CLASS
  1
MLEADERSTYLE
  2
AcDbMLeaderStyle
  3
ACDB_MLEADERSTYLE_CLASS
 90
     4095
280
     0
281
     0
  0
CLASS
  1
SUN
  2
AcDbSun
  3
SCENEOE
 90
     1153
280
     0
281
     0
  0
CLASS
  1
ACDBPLACEHOLDER
  2
AcDbPlaceHolder
  3
ObjectDBX Classes
 90
        0
280
     0
281
     0
  0
CLASS
  1
LAYOUT
  2
AcDbLayout
  3
ObjectDBX Classes
 90
        0
280
     0
281
     0
  0
ENDSEC
  0
SECTION
  2
TABLES
  0
TABLE
  2
VPORT
  5
8
330
0
100
AcDbSymbolTable
 70
     1
  0
VPORT
  5
29
330
8
100
AcDbSymbolTableRecord
100
AcDbViewportTableRecord
  2
*Active
 70
     0
 10
0.0
 20
0.0
 11
1.0
 21
1.0
 12
75.2937357381
 22
15.264071789
 13
0.0
 23
0.0
 14
10.0
 24
10.0
 15
10.0
 25
10.0
 16
0.0
 26
0.0
 36
1.0
 17
0.0
 27
0.0
 37
0.0
 40
29.4677935616
 41
0.7224079075
 42
50.0
 43
0.0
 44
0.0
 50
0.0
 51
0.0
 71
     0
 72
   100
 73
     1
 74
     3
 75
     0
 76
     0
 77
     0
 78
     0
281
     0
 65
     1
110
0.0
120
0.0
130
0.0
111
1.0
121
0.0
131
0.0
112
0.0
122
1.0
132
0.0
 79
     0
146
0.0
  0
ENDTAB
  0
TABLE
  2
LTYPE
  5
5
330
0
100
AcDbSymbolTable
 70
     6
  0
LTYPE
  5
14
330
5
100
AcDbSymbolTableRecord
100
AcDbLinetypeTableRecord
  2
ByBlock
 70
     0
  3

 72
    65
 73
     0
 40
0.0
  0
LTYPE
  5
15
330
5
100
AcDbSymbolTableRecord
100
AcDbLinetypeTableRecord
  2
ByLayer
 70
     0
  3

 72
    65
 73
     0
 40
0.0
  0
LTYPE
  5
16
330
5
100
AcDbSymbolTableRecord
100
AcDbLinetypeTableRecord
  2
Continuous
 70
     0
  3
Solid line
 72
    65
 73
     0
 40
0.0
  0
LTYPE
  5
6E
330
5
100
AcDbSymbolTableRecord
100
AcDbLinetypeTableRecord
  2
HIDDEN
 70
     0
  3
Hidden __ __ __ __ __ __ __ __ __ __ __ __ __ __
 72
    65
 73
     2
 40
1.905
 49
1.27
 74
     0
 49
-0.635
 74
     0
  0
LTYPE
  5
6F
330
5
100
AcDbSymbolTableRecord
100
AcDbLinetypeTableRecord
  2
PHANTOM
 70
     0
  3
Phantom ______  __  __  ______  __  __  ______
 72
    65
 73
     6
 40
12.7
 49
6.35
 74
     0
 49
-1.27
 74
     0
 49
1.27
 74
     0
 49
-1.27
 74
     0
 49
1.27
 74
     0
 49
-1.27
 74
     0
  0
LTYPE
  5
70
330
5
100
AcDbSymbolTableRecord
100
AcDbLinetypeTableRecord
  2
CENTER
 70
     0
  3
Center ____ _ ____ _ ____ _ ____ _ ____ _ ____
 72
    65
 73
     4
 40
10.16
 49
6.35
 74
     0
 49
-1.27
 74
     0
 49
1.27
 74
     0
 49
-1.27
 74
     0
  0
LTYPE
  5
71
330
5
100
AcDbSymbolTableRecord
100
AcDbLinetypeTableRecord
  2
CENTERX2
 70
     0
  3
Center (2x) ________  __  ________  __  _____
 72
    65
 73
     4
 40
20.32
 49
12.7
 74
     0
 49
-2.54
 74
     0
 49
2.54
 74
     0
 49
-2.54
 74
     0
  0
LTYPE
  5
72
330
5
100
AcDbSymbolTableRecord
100
AcDbLinetypeTableRecord
  2
DOT2
 70
     0
  3
Dot (.5x) ........................................
 72
    65
 73
     2
 40
0.635
 49
0.0
 74
     0
 49
-0.635
 74
     0
  0
ENDTAB
  0
TABLE
  2
LAYER
  5
2
330
0
100
AcDbSymbolTable
 70
     1
  0
LAYER
  5
10
330
2
100
AcDbSymbolTableRecord
100
AcDbLayerTableRecord
  2
0
 70
     0
 62
     7
  6
Continuous
370
    -3
390
F
  0
ENDTAB
  0
TABLE
  2
STYLE
  5
3
330
0
100
AcDbSymbolTable
 70
     2
  0
STYLE
  5
11
330
3
100
AcDbSymbolTableRecord
100
AcDbTextStyleTableRecord
  2
Standard
 70
     0
 40
0.0
 41
1.0
 50
0.0
 71
     0
 42
3.5
  3
txt
  4

  0
STYLE
  5
18C
330
3
100
AcDbSymbolTableRecord
100
AcDbTextStyleTableRecord
  2
SLDTEXTSTYLE0
 70
     0
 40
0.0
 41
0.7
 50
0.0
 71
     0
 42
3.5
  3
TXT
  4

  0
ENDTAB
  0
TABLE
  2
VIEW
  5
6
330
0
100
AcDbSymbolTable
 70
     0
  0
ENDTAB
  0
TABLE
  2
UCS
  5
7
330
0
100
AcDbSymbolTable
 70
     0
  0
ENDTAB
  0
TABLE
  2
APPID
  5
9
330
0
100
AcDbSymbolTable
 70
     1
  0
APPID
  5
12
330
9
100
AcDbSymbolTableRecord
100
AcDbRegAppTableRecord
  2
ACAD
 70
     0
  0
ENDTAB
  0
TABLE
  2
DIMSTYLE
  5
A
330
0
100
AcDbSymbolTable
 70
     1
100
AcDbDimStyleTable
  0
DIMSTYLE
105
27
330
A
100
AcDbSymbolTableRecord
100
AcDbDimStyleTableRecord
  2
ISO-25
 70
     0
 41
2.5
 42
0.625
 43
3.75
 44
1.25
 73
     0
 74
     0
 77
     1
 78
     8
140
2.5
141
2.5
143
0.0393700787
147
0.625
171
     3
172
     1
178
     0
271
     2
272
     2
274
     3
278
    44
283
     0
284
     8
340
11
  0
ENDTAB
  0
TABLE
  2
BLOCK_RECORD
  5
1
330
0
100
AcDbSymbolTable
 70
     1
  0
BLOCK_RECORD
  5
1F
330
1
100
AcDbSymbolTableRecord
100
AcDbBlockTableRecord
  2
*Model_Space
340
22
  0
BLOCK_RECORD
  5
1B
330
1
100
AcDbSymbolTableRecord
100
AcDbBlockTableRecord
  2
*Paper_Space
340
1E
  0
BLOCK_RECORD
  5
23
330
1
100
AcDbSymbolTableRecord
100
AcDbBlockTableRecord
  2
*Paper_Space0
340
26
  0
ENDTAB
  0
ENDSEC
  0
SECTION
  2
BLOCKS
  0
BLOCK
  5
20
330
1F
100
AcDbEntity
  8
0
100
AcDbBlockBegin
  2
*Model_Space
 70
     0
 10
0.0
 20
0.0
 30
0.0
  3
*Model_Space
  1

  0
ENDBLK
  5
21
330
1F
100
AcDbEntity
  8
0
100
AcDbBlockEnd
  0
BLOCK
  5
1C
330
1B
100
AcDbEntity
 67
     1
  8
0
100
AcDbBlockBegin
  2
*Paper_Space
 70
     0
 10
0.0
 20
0.0
 30
0.0
  3
*Paper_Space
  1

  0
ENDBLK
  5
1D
330
1B
100
AcDbEntity
 67
     1
  8
0
100
AcDbBlockEnd
  0
BLOCK
  5
24
330
23
100
AcDbEntity
  8
0
100
AcDbBlockBegin
  2
*Paper_Space0
 70
     0
 10
0.0
 20
0.0
 30
0.0
  3
*Paper_Space0
  1

  0
ENDBLK
  5
25
330
23
100
AcDbEntity
  8
0
100
AcDbBlockEnd
  0
ENDSEC
  0
SECTION
  2
ENTITIES
  0
ARC
  5
73
330
1F
100
AcDbEntity
  8
0
  6
Continuous
 62
     7
100
AcDbCircle
 10
66.1249393973
 20
24.8404151706
 30
0.0
 40
0.481978806710845
100
AcDbArc
 50
0.0
 51
81.0
  0
ARC
  5
74
330
1F
100
AcDbEntity
  8
0
  6
Continuous
 62
     7
100
AcDbCircle
 10
65.873740275
 20
22.4504151706
 30
0.0
 40
0.4809911988984107
100
AcDbArc
 50
0.0
 51
84.0
  0
ARC
  5
75
330
1F
100
AcDbEntity
  8
0
  6
Continuous
 62
     7
100
AcDbCircle
 10
66.5034782097
 20
27.2304151706
 30
0.0
 40
0.32509189095164
100
AcDbArc
 50
0.0
 51
79.0
  0
CIRCLE
  5
76
330
1F
100
AcDbEntity
  8
0
  6
Continuous
 62
     7
100
AcDbCircle
 10
67.1600059178
 20
27.7422642912
 30
0.0
 40
0.0470744234233393
  0
CIRCLE
  5
77
330
1F
100
AcDbEntity
  8
0
  6
Continuous
 62
     7
100
AcDbCircle
 10
66.9763641786
 20
25.4942230273
 30
0.0
 40
0.0470744234233393
  0
CIRCLE
  5
78
330
1F
100
AcDbEntity
  8
0
  6
Continuous
 62
     7
100
AcDbCircle
 10
66.7246070911
 20
23.1031866474
 30
0.0
 40
0.0470744234233536
  0
CIRCLE
  5
79
330
1F
100
AcDbEntity
  8
0
  6
Continuous
 62
     7
100
AcDbCircle
 10
66.6344366549
 20
20.6256016453
 30
0.0
 40
0.0470744234233393
  0
ARC
  5
7A
330
1F
100
AcDbEntity
  8
0
  6
Continuous
 62
     7
100
AcDbCircle
 10
65.7902796359
 20
20.0604151706
 30
0.0
 40
0.4809911988984092
100
AcDbArc
 50
0.0
 51
84.0
  0
ARC
  5
7B
330
1F
100
AcDbEntity
  8
0
  6
Continuous
 62
     7
100
AcDbCircle
 10
73.7265433345
 20
22.4504151706
 30
0.0
 40
0.5123840205284864
100
AcDbArc
 50
270.0
 51
67.0
  0
ARC
  5
7C
330
1F
100
AcDbEntity
  8
0
  6
Continuous
 62
     7
100
AcDbCircle
 10
74.7410381452
 20
24.8404151706
 30
0.0
 40
0.512384020528491
100
AcDbArc
 50
247.0
 51
44.0
  0
ARC
  5
7D
330
1F
100
AcDbEntity
  8
0
  6
Continuous
 62
     7
100
AcDbCircle
 10
77.2159555952
 20
27.2304151706
 30
0.0
 40
0.5123840205284887
100
AcDbArc
 50
224.0
 51
21.0
  0
CIRCLE
  5
7E
330
1F
100
AcDbEntity
  8
0
  6
Continuous
 62
     7
100
AcDbCircle
 10
75.3705309138
 20
22.6269241127
 30
0.0
 40
0.0470744234233393
  0
CIRCLE
  5
7F
330
1F
100
AcDbEntity
  8
0
  6
Continuous
 62
     7
100
AcDbCircle
 10
76.1406009606
 20
24.9387765722
 30
0.0
 40
0.0470744234233536
  0
CIRCLE
  5
80
330
1F
100
AcDbEntity
  8
0
  6
Continuous
 62
     7
100
AcDbCircle
 10
78.4661112435
 20
27.1506632172
 30
0.0
 40
0.0470744234233393
  0
CIRCLE
  5
81
330
1F
100
AcDbEntity
  8
0
  6
Continuous
 62
     7
100
AcDbCircle
 10
79.9550816449
 20
27.7541537937
 30
0.0
 40
0.0470744234233393
  0
ARC
  5
82
330
1F
100
AcDbEntity
  8
0
  6
Continuous
 62
     7
100
AcDbCircle
 10
79.7265433345
 20
28.1941395105
 30
0.0
 40
0.3135589788867231
100
AcDbArc
 50
201.0
 51
339.0
  0
CIRCLE
  5
83
330
1F
100
AcDbEntity
  8
0
  6
Continuous
 62
     7
100
AcDbCircle
 10
80.2994665176
 20
19.6130026851
 30
0.0
 40
0.1124129388187498
  0
LINE
  5
84
330
1F
100
AcDbEntity
  8
0
  6
Continuous
 62
     7
100
AcDbLine
 10
65.7902796359
 20
20.0604151706
 30
0.0
 11
68.1802796359
 21
20.0604151706
 31
0.0
  0
LINE
  5
85
330
1F
100
AcDbEntity
  8
0
  6
Continuous
 62
     7
100
AcDbLine
 10
65.873740275
 20
22.4504151706
 30
0.0
 11
68.0968189968
 21
22.4504151706
 31
0.0
  0
LINE
  5
86
330
1F
100
AcDbEntity
  8
0
  6
Continuous
 62
     7
100
AcDbLine
 10
66.1249393973
 20
24.8404151706
 30
0.0
 11
67.8456198746
 21
24.8404151706
 31
0.0
  0
LINE
  5
87
330
1F
100
AcDbEntity
  8
0
  6
Continuous
 62
     7
100
AcDbLine
 10
66.5034782097
 20
27.2304151706
 30
0.0
 11
67.4670810622
 21
27.2304151706
 31
0.0
  0
LINE
  5
88
330
1F
100
AcDbEntity
  8
0
  6
Continuous
 62
     7
100
AcDbLine
 10
68.1802796359
 20
20.0604151706
 30
0.0
 11
68.0968189968
 21
22.4504151706
 31
0.0
  0
LINE
  5
89
330
1F
100
AcDbEntity
  8
0
  6
Continuous
 62
     7
100
AcDbLine
 10
65.7902796359
 20
20.0604151706
 30
0.0
 11
65.873740275
 21
22.4504151706
 31
0.0
  0
LINE
  5
8A
330
1F
100
AcDbEntity
  8
0
  6
Continuous
 62
     7
100
AcDbLine
 10
65.873740275
 20
22.4504151706
 30
0.0
 11
66.1249393973
 21
24.8404151706
 31
0.0
  0
LINE
  5
8B
330
1F
100
AcDbEntity
  8
0
  6
Continuous
 62
     7
100
AcDbLine
 10
68.0968189968
 20
22.4504151706
 30
0.0
 11
67.8456198746
 21
24.8404151706
 31
0.0
  0
LINE
  5
8C
330
1F
100
AcDbEntity
  8
0
  6
Continuous
 62
     7
100
AcDbLine
 10
66.1249393973
 20
24.8404151706
 30
0.0
 11
66.5034782097
 21
27.2304151706
 31
0.0
  0
LINE
  5
8D
330
1F
100
AcDbEntity
  8
0
  6
Continuous
 62
     7
100
AcDbLine
 10
67.8456198746
 20
24.8404151706
 30
0.0
 11
67.4670810622
 21
27.2304151706
 31
0.0
  0
LINE
  5
8E
330
1F
100
AcDbEntity
  8
0
  6
Continuous
 62
     7
100
AcDbLine
 10
66.5034782097
 20
27.2304151706
 30
0.0
 11
66.8429480804
 21
28.9768362573
 31
0.0
  0
LINE
  5
8F
330
1F
100
AcDbEntity
  8
0
  6
Continuous
 62
     7
100
AcDbLine
 10
67.4670810622
 20
27.2304151706
 30
0.0
 11
67.1276111915
 21
28.9768362573
 31
0.0
  0
LINE
  5
90
330
1F
100
AcDbEntity
  8
0
  6
Continuous
 62
     7
100
AcDbLine
 10
66.5034782097
 20
27.2304151706
 30
0.0
 11
66.9852796359
 21
29.7090686329
 31
0.0
  0
LINE
  5
91
330
1F
100
AcDbEntity
  8
0
  6
Continuous
 62
     7
100
AcDbLine
 10
67.4670810622
 20
27.2304151706
 30
0.0
 11
66.9852796359
 21
29.7090686329
 31
0.0
  0
LINE
  5
92
330
1F
100
AcDbEntity
  8
0
  6
Continuous
 62
     7
100
AcDbLine
 10
65.8405569068
 20
20.5387714494
 30
0.0
 11
65.807025096
 21
20.539942406
 31
0.0
  0
LINE
  5
93
330
1F
100
AcDbEntity
  8
0
  6
Continuous
 62
     7
100
AcDbLine
 10
65.7902796359
 20
19.6831748742
 30
0.0
 11
68.1934531574
 21
19.6831748742
 31
0.0
  0
LINE
  5
94
330
1F
100
AcDbEntity
  8
0
  6
Continuous
 62
     7
100
AcDbLine
 10
65.7902796359
 20
19.6831748742
 30
0.0
 11
65.7902796359
 21
19.7817028541
 31
0.0
  0
LINE
  5
95
330
1F
100
AcDbEntity
  8
0
  6
Continuous
 62
     7
100
AcDbLine
 10
65.7902796359
 20
19.6831748742
 30
0.0
 11
65.7902796359
 21
19.6035768389
 31
0.0
  0
LINE
  5
96
330
1F
100
AcDbEntity
  8
0
  6
Continuous
 62
     7
100
AcDbLine
 10
68.1934531574
 20
19.6831748742
 30
0.0
 11
68.1934531574
 21
19.7817028541
 31
0.0
  0
LINE
  5
97
330
1F
100
AcDbEntity
  8
0
  6
Continuous
 62
     7
100
AcDbLine
 10
68.1934531574
 20
19.6831748742
 30
0.0
 11
68.1934531574
 21
19.6035768389
 31
0.0
  0
LINE
  5
98
330
1F
100
AcDbEntity
  8
0
  6
Continuous
 62
     7
100
AcDbLine
 10
65.838024387
 20
19.7130448777
 30
0.0
 11
65.7902796359
 21
19.681613087
 31
0.0
  0
LINE
  5
99
330
1F
100
AcDbEntity
  8
0
  6
Continuous
 62
     7
100
AcDbLine
 10
65.7902796359
 20
19.681613087
 30
0.0
 11
65.838024387
 21
19.6501812962
 31
0.0
  0
LINE
  5
9A
330
1F
100
AcDbEntity
  8
0
  6
Continuous
 62
     7
100
AcDbLine
 10
65.838024387
 20
19.6501812962
 30
0.0
 11
65.838024387
 21
19.7130448777
 31
0.0
  0
LINE
  5
9B
330
1F
100
AcDbEntity
  8
0
  6
Continuous
 62
     7
100
AcDbLine
 10
68.1480807542
 20
19.7130448777
 30
0.0
 11
68.1958255053
 21
19.681613087
 31
0.0
  0
LINE
  5
9C
330
1F
100
AcDbEntity
  8
0
  6
Continuous
 62
     7
100
AcDbLine
 10
68.1958255053
 20
19.681613087
 30
0.0
 11
68.1480807542
 21
19.6501812962
 31
0.0
  0
LINE
  5
9D
330
1F
100
AcDbEntity
  8
0
  6
Continuous
 62
     7
100
AcDbLine
 10
68.1480807542
 20
19.6501812962
 30
0.0
 11
68.1480807542
 21
19.7130448777
 31
0.0
  0
LINE
  5
9E
330
1F
100
AcDbEntity
  8
0
  6
Continuous
 62
     7
100
AcDbLine
 10
73.7265433345
 20
20.0604151706
 30
0.0
 11
79.7265433345
 21
20.0604151706
 31
0.0
  0
LINE
  5
9F
330
1F
100
AcDbEntity
  8
0
  6
Continuous
 62
     7
100
AcDbLine
 10
85.7265433345
 20
20.0604151706
 30
0.0
 11
85.7265433345
 21
22.4504151706
 31
0.0
  0
LINE
  5
A0
330
1F
100
AcDbEntity
  8
0
  6
Continuous
 62
     7
100
AcDbLine
 10
73.7265433345
 20
22.4504151706
 30
0.0
 11
73.7265433345
 21
20.0604151706
 31
0.0
  0
LINE
  5
A1
330
1F
100
AcDbEntity
  8
0
  6
Continuous
 62
     7
100
AcDbLine
 10
73.7265433345
 20
22.4504151706
 30
0.0
 11
74.7410381452
 21
24.8404151706
 31
0.0
  0
LINE
  5
A2
330
1F
100
AcDbEntity
  8
0
  6
Continuous
 62
     7
100
AcDbLine
 10
74.7410381452
 20
24.8404151706
 30
0.0
 11
77.1441720275
 21
27.1610945851
 31
0.0
  0
LINE
  5
A3
330
1F
100
AcDbEntity
  8
0
  6
Continuous
 62
     7
100
AcDbLine
 10
74.7410381452
 20
24.8404151706
 30
0.0
 11
77.2159555952
 21
27.2304151706
 31
0.0
  0
LINE
  5
A4
330
1F
100
AcDbEntity
  8
0
  6
Continuous
 62
     7
100
AcDbLine
 10
77.2159555952
 20
27.2304151706
 30
0.0
 11
79.7265433345
 21
28.1941395105
 31
0.0
  0
LINE
  5
A5
330
1F
100
AcDbEntity
  8
0
  6
Continuous
 62
     7
100
AcDbLine
 10
79.7265433345
 20
20.0604151706
 30
0.0
 11
85.7265433345
 21
20.0604151706
 31
0.0
  0
LINE
  5
A6
330
1F
100
AcDbEntity
  8
0
  6
Continuous
 62
     7
100
AcDbLine
 10
85.7265433345
 20
22.4504151706
 30
0.0
 11
84.7120485237
 21
24.8404151706
 31
0.0
  0
LINE
  5
A7
330
1F
100
AcDbEntity
  8
0
  6
Continuous
 62
     7
100
AcDbLine
 10
84.7120485237
 20
24.8404151706
 30
0.0
 11
82.2371310738
 21
27.2304151706
 31
0.0
  0
LINE
  5
A8
330
1F
100
AcDbEntity
  8
0
  6
Continuous
 62
     7
100
AcDbLine
 10
82.2371310738
 20
27.2304151706
 30
0.0
 11
79.7265433345
 21
28.1941395105
 31
0.0
  0
LINE
  5
A9
330
1F
100
AcDbEntity
  8
0
  6
Continuous
 62
     7
100
AcDbLine
 10
73.7265433345
 20
19.3892904595
 30
0.0
 11
85.7265433345
 21
19.3892904595
 31
0.0
  0
LINE
  5
AA
330
1F
100
AcDbEntity
  8
0
  6
Continuous
 62
     7
100
AcDbLine
 10
85.7265433345
 20
19.3892904595
 30
0.0
 11
85.7265433345
 21
19.4878184393
 31
0.0
  0
LINE
  5
AB
330
1F
100
AcDbEntity
  8
0
  6
Continuous
 62
     7
100
AcDbLine
 10
85.7265433345
 20
19.3892904595
 30
0.0
 11
85.7265433345
 21
19.3096924241
 31
0.0
  0
LINE
  5
AC
330
1F
100
AcDbEntity
  8
0
  6
Continuous
 62
     7
100
AcDbLine
 10
85.6811709314
 20
19.419160463
 30
0.0
 11
85.7289156824
 21
19.3877286722
 31
0.0
  0
LINE
  5
AD
330
1F
100
AcDbEntity
  8
0
  6
Continuous
 62
     7
100
AcDbLine
 10
85.7289156824
 20
19.3877286722
 30
0.0
 11
85.6811709314
 21
19.3562968814
 31
0.0
  0
LINE
  5
AE
330
1F
100
AcDbEntity
  8
0
  6
Continuous
 62
     7
100
AcDbLine
 10
85.6811709314
 20
19.3562968814
 30
0.0
 11
85.6811709314
 21
19.419160463
 31
0.0
  0
LINE
  5
AF
330
1F
100
AcDbEntity
  8
0
  6
Continuous
 62
     7
100
AcDbLine
 10
73.7265433345
 20
19.3892904595
 30
0.0
 11
73.7265433345
 21
19.4878184393
 31
0.0
  0
LINE
  5
B0
330
1F
100
AcDbEntity
  8
0
  6
Continuous
 62
     7
100
AcDbLine
 10
73.7265433345
 20
19.3892904595
 30
0.0
 11
73.7265433345
 21
19.3096924241
 31
0.0
  0
LINE
  5
B1
330
1F
100
AcDbEntity
  8
0
  6
Continuous
 62
     7
100
AcDbLine
 10
73.7719157376
 20
19.419160463
 30
0.0
 11
73.7241709866
 21
19.3877286722
 31
0.0
  0
LINE
  5
B2
330
1F
100
AcDbEntity
  8
0
  6
Continuous
 62
     7
100
AcDbLine
 10
73.7241709866
 20
19.3877286722
 30
0.0
 11
73.7719157376
 21
19.3562968814
 31
0.0
  0
LINE
  5
B3
330
1F
100
AcDbEntity
  8
0
  6
Continuous
 62
     7
100
AcDbLine
 10
73.7719157376
 20
19.3562968814
 30
0.0
 11
73.7719157376
 21
19.419160463
 31
0.0
  0
LINE
  5
B4
330
1F
100
AcDbEntity
  8
0
  6
Continuous
 62
     7
100
AcDbLine
 10
80.1613170234
 20
19.4844405801
 30
0.0
 11
80.4332453324
 21
19.7325350519
 31
0.0
  0
LINE
  5
B5
330
1F
100
AcDbEntity
  8
0
  6
Continuous
 62
     7
100
AcDbLine
 10
74.1832661394
 20
11.3993999731
 30
0.0
 11
75.4839026474
 21
13.3459400661
 31
0.0
  0
LINE
  5
B6
330
1F
100
AcDbEntity
  8
0
  6
Continuous
 62
     7
100
AcDbLine
 10
75.4839026474
 20
13.3459400661
 30
0.0
 11
77.4304427403
 21
14.646576574
 31
0.0
  0
LINE
  5
B7
330
1F
100
AcDbEntity
  8
0
  6
Continuous
 62
     7
100
AcDbLine
 10
77.4304427403
 20
14.646576574
 30
0.0
 11
79.7265433345
 21
15.1032993789
 31
0.0
  0
LINE
  5
B8
330
1F
100
AcDbEntity
  8
0
  6
Continuous
 62
     7
100
AcDbLine
 10
79.7265433345
 20
15.1032993789
 30
0.0
 11
82.0226439287
 21
14.646576574
 31
0.0
  0
LINE
  5
B9
330
1F
100
AcDbEntity
  8
0
  6
Continuous
 62
     7
100
AcDbLine
 10
82.0226439287
 20
14.646576574
 30
0.0
 11
83.9691840216
 21
13.3459400661
 31
0.0
  0
LINE
  5
BA
330
1F
100
AcDbEntity
  8
0
  6
Continuous
 62
     7
100
AcDbLine
 10
83.9691840216
 20
13.3459400661
 30
0.0
 11
85.2698205295
 21
11.2740894189
 31
0.0
  0
LINE
  5
BB
330
1F
100
AcDbEntity
  8
0
  6
Continuous
 62
     7
100
AcDbLine
 10
85.2698205295
 20
11.2740894189
 30
0.0
 11
85.7265433345
 21
9.2097446501
 31
0.0
  0
LINE
  5
BC
330
1F
100
AcDbEntity
  8
0
  6
Continuous
 62
     7
100
AcDbLine
 10
85.7265433345
 20
9.2097446501
 30
0.0
 11
85.2698205295
 21
6.8071987847
 31
0.0
  0
LINE
  5
BD
330
1F
100
AcDbEntity
  8
0
  6
Continuous
 62
     7
100
AcDbLine
 10
85.2698205295
 20
6.8071987847
 30
0.0
 11
83.9691840216
 21
4.8606586918
 31
0.0
  0
LINE
  5
BE
330
1F
100
AcDbEntity
  8
0
  6
Continuous
 62
     7
100
AcDbLine
 10
83.9691840216
 20
4.8606586918
 30
0.0
 11
82.0226439287
 21
3.5600221839
 31
0.0
  0
LINE
  5
BF
330
1F
100
AcDbEntity
  8
0
  6
Continuous
 62
     7
100
AcDbLine
 10
82.0226439287
 20
3.5600221839
 30
0.0
 11
79.7265433345
 21
3.1032993789
 31
0.0
  0
LINE
  5
C0
330
1F
100
AcDbEntity
  8
0
  6
Continuous
 62
     7
100
AcDbLine
 10
79.7265433345
 20
3.1032993789
 30
0.0
 11
77.4304427403
 21
3.5600221839
 31
0.0
  0
LINE
  5
C1
330
1F
100
AcDbEntity
  8
0
  6
Continuous
 62
     7
100
AcDbLine
 10
77.4304427403
 20
3.5600221839
 30
0.0
 11
75.4839026474
 21
4.8606586918
 31
0.0
  0
LINE
  5
C2
330
1F
100
AcDbEntity
  8
0
  6
Continuous
 62
     7
100
AcDbLine
 10
75.4839026474
 20
4.8606586918
 30
0.0
 11
74.1832661394
 21
6.8071987847
 31
0.0
  0
LINE
  5
C3
330
1F
100
AcDbEntity
  8
0
  6
Continuous
 62
     7
100
AcDbLine
 10
74.1832661394
 20
6.8071987847
 30
0.0
 11
73.7265433345
 21
9.1032993789
 31
0.0
  0
LINE
  5
C4
330
1F
100
AcDbEntity
  8
0
  6
Continuous
 62
     7
100
AcDbLine
 10
73.7265433345
 20
9.1032993789
 30
0.0
 11
74.1832661394
 21
11.3993999731
 31
0.0
  0
LINE
  5
C5
330
1F
100
AcDbEntity
  8
0
  6
Continuous
 62
     7
100
AcDbLine
 10
79.7265433345
 20
6.5870734908
 30
0.0
 11
79.7265433345
 21
9.1032993789
 31
0.0
  0
LINE
  5
C6
330
1F
100
AcDbEntity
  8
0
  6
Continuous
 62
     7
100
AcDbLine
 10
79.7265433345
 20
9.1032993789
 30
0.0
 11
73.7265433345
 21
9.1032993789
 31
0.0
  0
LINE
  5
C7
330
1F
100
AcDbEntity
  8
0
  6
Continuous
 62
     7
100
AcDbLine
 10
79.7265433345
 20
9.1032993789
 30
0.0
 11
74.1832661394
 21
11.3993999731
 31
0.0
  0
LINE
  5
C8
330
1F
100
AcDbEntity
  8
0
  6
Continuous
 62
     7
100
AcDbLine
 10
79.7265433345
 20
9.1032993789
 30
0.0
 11
75.4839026474
 21
13.3459400661
 31
0.0
  0
LINE
  5
C9
330
1F
100
AcDbEntity
  8
0
  6
Continuous
 62
     7
100
AcDbLine
 10
79.7265433345
 20
9.1032993789
 30
0.0
 11
77.4304427403
 21
14.646576574
 31
0.0
  0
LINE
  5
CA
330
1F
100
AcDbEntity
  8
0
  6
Continuous
 62
     7
100
AcDbLine
 10
79.7265433345
 20
9.1032993789
 30
0.0
 11
79.7265433345
 21
15.1032993789
 31
0.0
  0
LINE
  5
CB
330
1F
100
AcDbEntity
  8
0
  6
Continuous
 62
     7
100
AcDbLine
 10
79.7265433345
 20
9.1032993789
 30
0.0
 11
82.0226439287
 21
14.646576574
 31
0.0
  0
LINE
  5
CC
330
1F
100
AcDbEntity
  8
0
  6
Continuous
 62
     7
100
AcDbLine
 10
79.7265433345
 20
9.1032993789
 30
0.0
 11
83.9691840216
 21
13.3459400661
 31
0.0
  0
LINE
  5
CD
330
1F
100
AcDbEntity
  8
0
  6
Continuous
 62
     7
100
AcDbLine
 10
79.7265433345
 20
9.1032993789
 30
0.0
 11
85.2698205295
 21
11.3993999731
 31
0.0
  0
LINE
  5
CE
330
1F
100
AcDbEntity
  8
0
  6
Continuous
 62
     7
100
AcDbLine
 10
79.7265433345
 20
9.1032993789
 30
0.0
 11
85.7265433345
 21
9.1032993789
 31
0.0
  0
LINE
  5
CF
330
1F
100
AcDbEntity
  8
0
  6
Continuous
 62
     7
100
AcDbLine
 10
79.7265433345
 20
9.1032993789
 30
0.0
 11
74.1832661394
 21
6.8071987847
 31
0.0
  0
LINE
  5
D0
330
1F
100
AcDbEntity
  8
0
  6
Continuous
 62
     7
100
AcDbLine
 10
79.7265433345
 20
9.1032993789
 30
0.0
 11
75.4839026474
 21
4.8606586918
 31
0.0
  0
LINE
  5
D1
330
1F
100
AcDbEntity
  8
0
  6
Continuous
 62
     7
100
AcDbLine
 10
79.7265433345
 20
9.1032993789
 30
0.0
 11
79.7265433345
 21
3.1032993789
 31
0.0
  0
LINE
  5
D2
330
1F
100
AcDbEntity
  8
0
  6
Continuous
 62
     7
100
AcDbLine
 10
79.7265433345
 20
9.1032993789
 30
0.0
 11
82.0226439287
 21
3.5600221839
 31
0.0
  0
LINE
  5
D3
330
1F
100
AcDbEntity
  8
0
  6
Continuous
 62
     7
100
AcDbLine
 10
79.7265433345
 20
9.1032993789
 30
0.0
 11
83.9691840216
 21
4.8606586918
 31
0.0
  0
LINE
  5
D4
330
1F
100
AcDbEntity
  8
0
  6
Continuous
 62
     7
100
AcDbLine
 10
79.7265433345
 20
9.1032993789
 30
0.0
 11
85.2698205295
 21
6.8071987847
 31
0.0
  0
LINE
  5
D5
330
1F
100
AcDbEntity
  8
0
  6
Continuous
 62
     7
100
AcDbLine
 10
77.2103174463
 20
9.1032993789
 30
0.0
 11
77.4018537372
 21
10.0662173384
 31
0.0
  0
LINE
  5
D6
330
1F
100
AcDbEntity
  8
0
  6
Continuous
 62
     7
100
AcDbLine
 10
77.4018537372
 20
10.0662173384
 30
0.0
 11
77.947302946
 21
10.8825397674
 31
0.0
  0
LINE
  5
D7
330
1F
100
AcDbEntity
  8
0
  6
Continuous
 62
     7
100
AcDbLine
 10
77.947302946
 20
10.8825397674
 30
0.0
 11
78.763625375
 21
11.4279889762
 31
0.0
  0
LINE
  5
D8
330
1F
100
AcDbEntity
  8
0
  6
Continuous
 62
     7
100
AcDbLine
 10
78.763625375
 20
11.4279889762
 30
0.0
 11
79.7265433345
 21
11.6195252671
 31
0.0
  0
LINE
  5
D9
330
1F
100
AcDbEntity
  8
0
  6
Continuous
 62
     7
100
AcDbLine
 10
79.7265433345
 20
11.6195252671
 30
0.0
 11
80.689461294
 21
11.4279889762
 31
0.0
  0
LINE
  5
DA
330
1F
100
AcDbEntity
  8
0
  6
Continuous
 62
     7
100
AcDbLine
 10
80.689461294
 20
11.4279889762
 30
0.0
 11
81.505783723
 21
10.8825397674
 31
0.0
  0
LINE
  5
DB
330
1F
100
AcDbEntity
  8
0
  6
Continuous
 62
     7
100
AcDbLine
 10
81.505783723
 20
10.8825397674
 30
0.0
 11
82.0512329317
 21
10.0662173384
 31
0.0
  0
LINE
  5
DC
330
1F
100
AcDbEntity
  8
0
  6
Continuous
 62
     7
100
AcDbLine
 10
82.0512329317
 20
10.0662173384
 30
0.0
 11
82.2427692226
 21
9.1032993789
 31
0.0
  0
LINE
  5
DD
330
1F
100
AcDbEntity
  8
0
  6
Continuous
 62
     7
100
AcDbLine
 10
82.2427692226
 20
9.1032993789
 30
0.0
 11
82.0512329317
 21
8.1403814195
 31
0.0
  0
LINE
  5
DE
330
1F
100
AcDbEntity
  8
0
  6
Continuous
 62
     7
100
AcDbLine
 10
82.0512329317
 20
8.1403814195
 30
0.0
 11
81.505783723
 21
7.3240589904
 31
0.0
  0
LINE
  5
DF
330
1F
100
AcDbEntity
  8
0
  6
Continuous
 62
     7
100
AcDbLine
 10
81.505783723
 20
7.3240589904
 30
0.0
 11
80.689461294
 21
6.7786097817
 31
0.0
  0
LINE
  5
E0
330
1F
100
AcDbEntity
  8
0
  6
Continuous
 62
     7
100
AcDbLine
 10
80.689461294
 20
6.7786097817
 30
0.0
 11
79.7265433345
 21
6.5870734908
 31
0.0
  0
LINE
  5
E1
330
1F
100
AcDbEntity
  8
0
  6
Continuous
 62
     7
100
AcDbLine
 10
79.7265433345
 20
6.5870734908
 30
0.0
 11
78.7421584578
 21
6.7876182405
 31
0.0
  0
LINE
  5
E2
330
1F
100
AcDbEntity
  8
0
  6
Continuous
 62
     7
100
AcDbLine
 10
78.7421584578
 20
6.7876182405
 30
0.0
 11
77.947302946
 21
7.3240589904
 31
0.0
  0
LINE
  5
E3
330
1F
100
AcDbEntity
  8
0
  6
Continuous
 62
     7
100
AcDbLine
 10
77.947302946
 20
7.3240589904
 30
0.0
 11
77.4018537372
 21
8.1403814195
 31
0.0
  0
LINE
  5
E4
330
1F
100
AcDbEntity
  8
0
  6
Continuous
 62
     7
100
AcDbLine
 10
77.4018537372
 20
8.1403814195
 30
0.0
 11
77.2103174463
 21
9.1032993789
 31
0.0
  0
LINE
  5
E5
330
1F
100
AcDbEntity
  8
0
  6
Continuous
 62
     7
100
AcDbLine
 10
79.7265433345
 20
9.1032993789
 30
0.0
 11
77.4304427403
 21
3.5600221839
 31
0.0
  0
LINE
  5
E6
330
1F
100
AcDbEntity
  8
0
  6
Continuous
 62
     7
100
AcDbLine
 10
79.7265433345
 20
5.0827681022
 30
0.0
 11
78.1879526256
 21
5.3888128226
 31
0.0
  0
LINE
  5
E7
330
1F
100
AcDbEntity
  8
0
  6
Continuous
 62
     7
100
AcDbLine
 10
78.1879526256
 20
5.3888128226
 30
0.0
 11
76.8835984048
 21
6.2603544492
 31
0.0
  0
LINE
  5
E8
330
1F
100
AcDbEntity
  8
0
  6
Continuous
 62
     7
100
AcDbLine
 10
76.8835984048
 20
6.2603544492
 30
0.0
 11
76.0120567781
 21
7.56470867
 31
0.0
  0
LINE
  5
E9
330
1F
100
AcDbEntity
  8
0
  6
Continuous
 62
     7
100
AcDbLine
 10
76.0120567781
 20
7.56470867
 30
0.0
 11
75.7060120578
 21
9.1032993789
 31
0.0
  0
LINE
  5
EA
330
1F
100
AcDbEntity
  8
0
  6
Continuous
 62
     7
100
AcDbLine
 10
75.7060120578
 20
9.1032993789
 30
0.0
 11
76.0120567781
 21
10.6418900878
 31
0.0
  0
LINE
  5
EB
330
1F
100
AcDbEntity
  8
0
  6
Continuous
 62
     7
100
AcDbLine
 10
76.0120567781
 20
10.6418900878
 30
0.0
 11
76.8835984048
 21
11.9462443087
 31
0.0
  0
LINE
  5
EC
330
1F
100
AcDbEntity
  8
0
  6
Continuous
 62
     7
100
AcDbLine
 10
76.8835984048
 20
11.9462443087
 30
0.0
 11
78.1879526256
 21
12.8177859353
 31
0.0
  0
LINE
  5
ED
330
1F
100
AcDbEntity
  8
0
  6
Continuous
 62
     7
100
AcDbLine
 10
78.1879526256
 20
12.8177859353
 30
0.0
 11
79.7265433345
 21
13.1238306556
 31
0.0
  0
LINE
  5
EE
330
1F
100
AcDbEntity
  8
0
  6
Continuous
 62
     7
100
AcDbLine
 10
79.7265433345
 20
13.1238306556
 30
0.0
 11
81.2651340434
 21
12.8177859353
 31
0.0
  0
LINE
  5
EF
330
1F
100
AcDbEntity
  8
0
  6
Continuous
 62
     7
100
AcDbLine
 10
81.2651340434
 20
12.8177859353
 30
0.0
 11
82.5694882642
 21
11.9462443087
 31
0.0
  0
LINE
  5
F0
330
1F
100
AcDbEntity
  8
0
  6
Continuous
 62
     7
100
AcDbLine
 10
82.5694882642
 20
11.9462443087
 30
0.0
 11
83.4410298908
 21
10.6418900878
 31
0.0
  0
LINE
  5
F1
330
1F
100
AcDbEntity
  8
0
  6
Continuous
 62
     7
100
AcDbLine
 10
83.4410298908
 20
10.6418900878
 30
0.0
 11
83.7470746112
 21
9.1032993789
 31
0.0
  0
LINE
  5
F2
330
1F
100
AcDbEntity
  8
0
  6
Continuous
 62
     7
100
AcDbLine
 10
83.7470746112
 20
9.1032993789
 30
0.0
 11
83.4410298908
 21
7.56470867
 31
0.0
  0
LINE
  5
F3
330
1F
100
AcDbEntity
  8
0
  6
Continuous
 62
     7
100
AcDbLine
 10
83.4410298908
 20
7.56470867
 30
0.0
 11
82.5694882642
 21
6.2603544492
 31
0.0
  0
LINE
  5
F4
330
1F
100
AcDbEntity
  8
0
  6
Continuous
 62
     7
100
AcDbLine
 10
82.5694882642
 20
6.2603544492
 30
0.0
 11
81.2651340434
 21
5.3888128226
 31
0.0
  0
LINE
  5
F5
330
1F
100
AcDbEntity
  8
0
  6
Continuous
 62
     7
100
AcDbLine
 10
81.2651340434
 20
5.3888128226
 30
0.0
 11
79.7265433345
 21
5.0827681022
 31
0.0
  0
LINE
  5
F6
330
1F
100
AcDbEntity
  8
0
  6
Continuous
 62
     7
100
AcDbLine
 10
79.7265433345
 20
3.6347091744
 30
0.0
 11
77.6338044648
 21
4.0509808173
 31
0.0
  0
LINE
  5
F7
330
1F
100
AcDbEntity
  8
0
  6
Continuous
 62
     7
100
AcDbLine
 10
77.6338044648
 20
4.0509808173
 30
0.0
 11
75.8596661173
 21
5.2364221618
 31
0.0
  0
LINE
  5
F8
330
1F
100
AcDbEntity
  8
0
  6
Continuous
 62
     7
100
AcDbLine
 10
75.8596661173
 20
5.2364221618
 30
0.0
 11
74.6742247728
 21
7.0105605093
 31
0.0
  0
LINE
  5
F9
330
1F
100
AcDbEntity
  8
0
  6
Continuous
 62
     7
100
AcDbLine
 10
74.6742247728
 20
7.0105605093
 30
0.0
 11
74.2579531299
 21
9.1032993789
 31
0.0
  0
LINE
  5
FA
330
1F
100
AcDbEntity
  8
0
  6
Continuous
 62
     7
100
AcDbLine
 10
74.2579531299
 20
9.1032993789
 30
0.0
 11
74.6742247728
 21
11.1960382486
 31
0.0
  0
LINE
  5
FB
330
1F
100
AcDbEntity
  8
0
  6
Continuous
 62
     7
100
AcDbLine
 10
74.6742247728
 20
11.1960382486
 30
0.0
 11
75.8596661173
 21
12.9701765961
 31
0.0
  0
LINE
  5
FC
330
1F
100
AcDbEntity
  8
0
  6
Continuous
 62
     7
100
AcDbLine
 10
75.8596661173
 20
12.9701765961
 30
0.0
 11
77.6338044648
 21
14.1556179406
 31
0.0
  0
LINE
  5
FD
330
1F
100
AcDbEntity
  8
0
  6
Continuous
 62
     7
100
AcDbLine
 10
77.6338044648
 20
14.1556179406
 30
0.0
 11
79.7265433345
 21
14.5718895835
 31
0.0
  0
LINE
  5
FE
330
1F
100
AcDbEntity
  8
0
  6
Continuous
 62
     7
100
AcDbLine
 10
79.7265433345
 20
14.5718895835
 30
0.0
 11
81.8192822041
 21
14.1556179406
 31
0.0
  0
LINE
  5
FF
330
1F
100
AcDbEntity
  8
0
  6
Continuous
 62
     7
100
AcDbLine
 10
81.8192822041
 20
14.1556179406
 30
0.0
 11
83.5934205516
 21
12.9701765961
 31
0.0
  0
LINE
  5
100
330
1F
100
AcDbEntity
  8
0
  6
Continuous
 62
     7
100
AcDbLine
 10
83.5934205516
 20
12.9701765961
 30
0.0
 11
84.7788618961
 21
11.1960382486
 31
0.0
  0
LINE
  5
101
330
1F
100
AcDbEntity
  8
0
  6
Continuous
 62
     7
100
AcDbLine
 10
84.7788618961
 20
11.1960382486
 30
0.0
 11
85.195133539
 21
9.1032993789
 31
0.0
  0
LINE
  5
102
330
1F
100
AcDbEntity
  8
0
  6
Continuous
 62
     7
100
AcDbLine
 10
85.195133539
 20
9.1032993789
 30
0.0
 11
84.7788618961
 21
7.0105605093
 31
0.0
  0
LINE
  5
103
330
1F
100
AcDbEntity
  8
0
  6
Continuous
 62
     7
100
AcDbLine
 10
84.7788618961
 20
7.0105605093
 30
0.0
 11
83.5934205516
 21
5.2364221618
 31
0.0
  0
LINE
  5
104
330
1F
100
AcDbEntity
  8
0
  6
Continuous
 62
     7
100
AcDbLine
 10
83.5934205516
 20
5.2364221618
 30
0.0
 11
81.8192822041
 21
4.0509808173
 31
0.0
  0
LINE
  5
105
330
1F
100
AcDbEntity
  8
0
  6
Continuous
 62
     7
100
AcDbLine
 10
81.8192822041
 20
4.0509808173
 30
0.0
 11
79.7265433345
 21
3.6347091744
 31
0.0
  0
LWPOLYLINE
  5
106
330
1F
100
AcDbEntity
  8
0
  6
Continuous
 62
     7
100
AcDbPolyline
 90
        4
 70
   128
 43
0.0
 10
67.5476789474
 20
22.4504151706
 10
68.1206619057
 20
23.0912108804
 10
68.5810887968
 20
23.1054054402
 10
68.9805219224
 20
22.8956062271
  0
LWPOLYLINE
  5
107
330
1F
100
AcDbEntity
  8
0
  6
Continuous
 62
     7
100
AcDbPolyline
 90
        4
 70
   128
 43
0.0
 10
67.5476789474
 20
24.8404151706
 10
68.1206619057
 20
25.4812108804
 10
68.5810887968
 20
25.4954054402
 10
68.9805219224
 20
25.2856062271
  0
LWPOLYLINE
  5
108
330
1F
100
AcDbEntity
  8
0
  6
Continuous
 62
     7
100
AcDbPolyline
 90
        4
 70
   128
 43
0.0
 10
67.1523809433
 20
27.2647484522
 10
67.7253831761
 20
27.9055441621
 10
68.1858100673
 20
27.9197387219
 10
68.5852431929
 20
27.7099395087
  0
LWPOLYLINE
  5
109
330
1F
100
AcDbEntity
  8
0
  6
Continuous
 62
     7
100
AcDbPolyline
 90
       49
 70
   128
 43
0.0
 10
66.77287817
 20
27.6662247878
 10
66.7728959947
 20
27.6982760698
 10
66.7728959947
 20
27.6982760698
 10
66.9427677895
 20
27.6982760698
 10
66.9427677895
 20
27.6982760698
 10
66.9427677895
 20
27.6723345634
 10
66.9427677895
 20
27.6723345634
 10
66.9365578536
 20
27.6656739064
 10
66.9303479177
 20
27.658512448
 10
66.924188062
 20
27.6508501884
 10
66.9179781261
 20
27.6426871275
 10
66.9118182703
 20
27.6340232653
 10
66.9057084947
 20
27.6248586019
 10
66.8995486389
 20
27.6151931371
 10
66.8934388632
 20
27.6050268711
 10
66.8819204338
 20
27.5840933775
 10
66.8718042479
 20
27.562809323
 10
66.8630402254
 20
27.5412748679
 10
66.8556784466
 20
27.519439932
 10
66.8556784466
 20
27.519439932
 10
66.8513214754
 20
27.5035645314
 10
66.8478158664
 20
27.4869379288
 10
66.8451616197
 20
27.4695601243
 10
66.8434088152
 20
27.451481198
 10
66.8434088152
 20
27.451481198
 10
66.8113575331
 20
27.451481198
 10
66.8113575331
 20
27.451481198
 10
66.8116580139
 20
27.4589431371
 10
66.8123090556
 20
27.4668057173
 10
66.813260578
 20
27.4750689384
 10
66.8145626613
 20
27.4836827205
 10
66.8162153056
 20
27.4926470634
 10
66.8182185107
 20
27.5020621275
 10
66.8205722767
 20
27.5118277525
 10
66.8232265235
 20
27.5219439384
 10
66.8295366197
 20
27.5424267108
 10
66.837098719
 20
27.5625088423
 10
66.8458627414
 20
27.5822404128
 10
66.8558787671
 20
27.6015713423
 10
66.8612373408
 20
27.6109864064
 10
66.8666459947
 20
27.6200008294
 10
66.8722048889
 20
27.6286646916
 10
66.8778138632
 20
27.6369279128
 10
66.8834729177
 20
27.6447904929
 10
66.8892822126
 20
27.6523025121
 10
66.8951415876
 20
27.6594639705
 10
66.9011011229
 20
27.6662247878
 10
66.9011011229
 20
27.6662247878
 10
66.7728959947
 20
27.6662247878
  0
LWPOLYLINE
  5
10A
330
1F
100
AcDbEntity
  8
0
  6
Continuous
 62
     7
100
AcDbPolyline
 90
      145
 70
   128
 43
0.0
 10
66.9779777527
 20
27.5123786339
 10
67.0100754818
 20
27.5155837621
 10
67.0100754818
 20
27.5155837621
 10
67.0111271645
 20
27.5106759096
 10
67.0124292479
 20
27.506168698
 10
67.0139316517
 20
27.5019619673
 10
67.0156844562
 20
27.4981558775
 10
67.0176375812
 20
27.4946502685
 10
67.0197910267
 20
27.4914952205
 10
67.0221948729
 20
27.4886907333
 10
67.0247990395
 20
27.486236807
 10
67.0306584145
 20
27.4822303967
 10
67.0372689914
 20
27.4794259096
 10
67.0446307703
 20
27.4776731051
 10
67.0527437511
 20
27.4771222237
 10
67.0527437511
 20
27.4771222237
 10
67.0598551293
 20
27.4775228647
 10
67.0666159466
 20
27.4786747076
 10
67.073026203
 20
27.4805777525
 10
67.0790858985
 20
27.4832820794
 10
67.0846447927
 20
27.486637448
 10
67.0895025652
 20
27.490543698
 10
67.0936592158
 20
27.4949006692
 10
67.0971147447
 20
27.4998085217
 10
67.1001195523
 20
27.5054675762
 10
67.1029741197
 20
27.512028073
 10
67.1055782863
 20
27.5194900121
 10
67.1080322126
 20
27.5279034737
 10
67.110135578
 20
27.5368678166
 10
67.1115879017
 20
27.5459323198
 10
67.112489344
 20
27.5551971435
 10
67.1127898248
 20
27.5645621275
 10
67.1127898248
 20
27.5645621275
 10
67.1127397447
 20
27.567116214
 10
67.1126395844
 20
27.5706719031
 10
67.1126395844
 20
27.5706719031
 10
67.1074312511
 20
27.5637608455
 10
67.1014216357
 20
27.5575008294
 10
67.0944604979
 20
27.5519419352
 10
67.086698078
 20
27.5470841628
 10
67.0783346966
 20
27.5431278326
 10
67.0695706741
 20
27.5402732653
 10
67.0605061709
 20
27.538570541
 10
67.0510911068
 20
27.5380196596
 10
67.0510911068
 20
27.5380196596
 10
67.0432786068
 20
27.5383702205
 10
67.0357165075
 20
27.5394219031
 10
67.028504969
 20
27.5411246275
 10
67.0215939113
 20
27.5435785538
 10
67.0149833344
 20
27.5466835217
 10
67.0086732382
 20
27.5504896115
 10
67.0026636229
 20
27.5549467429
 10
66.9969544882
 20
27.5601550762
 10
66.9917461549
 20
27.565914291
 10
66.9872890235
 20
27.5721242269
 10
66.9834829338
 20
27.5787348038
 10
66.9803779658
 20
27.5857961019
 10
66.9779240395
 20
27.5933081211
 10
66.9762213152
 20
27.6012708615
 10
66.9751696325
 20
27.609684323
 10
66.9748190716
 20
27.6184984256
 10
66.9748190716
 20
27.6184984256
 10
66.9751696325
 20
27.6276130089
 10
66.9762713953
 20
27.6362768711
 10
66.9780742799
 20
27.6444900121
 10
66.9806283664
 20
27.6522023519
 10
66.9838334947
 20
27.6595140506
 10
66.9878399049
 20
27.666324948
 10
66.992547437
 20
27.6727352044
 10
66.9979560908
 20
27.6786446596
 10
67.0039156261
 20
27.6840032333
 10
67.0102758023
 20
27.6886606852
 10
67.0169865395
 20
27.6925669352
 10
67.0240979177
 20
27.6957720634
 10
67.0315097767
 20
27.6982760698
 10
67.0393222767
 20
27.7000789544
 10
67.0474853376
 20
27.7011306371
 10
67.0560490395
 20
27.701481198
 10
67.0560490395
 20
27.701481198
 10
67.0622589754
 20
27.7012808775
 10
67.0683687511
 20
27.700679916
 10
67.0743282863
 20
27.6996282333
 10
67.0801876613
 20
27.6982259897
 10
67.0858467158
 20
27.6963730249
 10
67.09140561
 20
27.6941694993
 10
67.0968142639
 20
27.6915152525
 10
67.1021227575
 20
27.6884603647
 10
67.1071808504
 20
27.685054916
 10
67.1119384626
 20
27.6812488262
 10
67.1163455139
 20
27.6771422557
 10
67.1205021645
 20
27.6726851243
 10
67.1243082543
 20
27.6678273519
 10
67.1277637831
 20
27.6626690987
 10
67.1309689113
 20
27.6571602846
 10
67.1338234786
 20
27.6513009096
 10
67.1363775652
 20
27.6449407333
 10
67.1385810908
 20
27.6379295153
 10
67.1404340556
 20
27.6302171756
 10
67.1419865395
 20
27.621803714
 10
67.1431383825
 20
27.6127392108
 10
67.1439897447
 20
27.603023666
 10
67.1445406261
 20
27.5926069993
 10
67.1446908664
 20
27.581539291
 10
67.1446908664
 20
27.581539291
 10
67.1445406261
 20
27.5699707814
 10
67.1439897447
 20
27.5590032333
 10
67.1431383825
 20
27.5486366467
 10
67.1419865395
 20
27.5388710217
 10
67.1404340556
 20
27.5297063583
 10
67.1385810908
 20
27.5211426564
 10
67.1363775652
 20
27.5132299961
 10
67.1338234786
 20
27.5058682173
 10
67.1309689113
 20
27.4990573198
 10
67.1277637831
 20
27.4926470634
 10
67.124208094
 20
27.486637448
 10
67.1203519241
 20
27.4810785538
 10
67.1161451934
 20
27.4759203006
 10
67.1116379818
 20
27.4712127685
 10
67.1067802094
 20
27.4669058775
 10
67.1015718761
 20
27.4629996275
 10
67.0961131421
 20
27.4595440987
 10
67.0904040075
 20
27.456539291
 10
67.0844444722
 20
27.4540352846
 10
67.0782846164
 20
27.4519819993
 10
67.07187436
 20
27.4503293551
 10
67.0652637831
 20
27.4491775121
 10
67.0584028056
 20
27.4485264705
 10
67.0512914273
 20
27.4482760698
 10
67.0512914273
 20
27.4482760698
 10
67.0438294882
 20
27.4485264705
 10
67.03671811
 20
27.4493277525
 10
67.0299072126
 20
27.4506298358
 10
67.0234969562
 20
27.4524828006
 10
67.0174372607
 20
27.4548365666
 10
67.0117281261
 20
27.457741214
 10
67.0063194722
 20
27.4611466628
 10
67.0013114594
 20
27.4651029929
 10
66.9967040876
 20
27.4695100442
 10
66.9925975171
 20
27.4743678166
 10
66.9889416677
 20
27.4796262301
 10
66.9857866197
 20
27.4853353647
 10
66.9831323729
 20
27.4914451403
 10
66.9809288472
 20
27.4980056371
 10
66.9792261229
 20
27.5049667749
 10
66.9780241998
 20
27.5123786339
  0
LWPOLYLINE
  5
10B
330
1F
100
AcDbEntity
  8
0
  6
Continuous
 62
     7
100
AcDbPolyline
 90
       68
 70
   128
 43
0.0
 10
67.1126246452
 20
27.6191995474
 10
67.1124392639
 20
27.6252091628
 10
67.1117381421
 20
27.6308682173
 10
67.1106363793
 20
27.636226791
 10
67.1090838953
 20
27.6412348038
 10
67.1070806902
 20
27.6459423358
 10
67.1046267639
 20
27.6503493871
 10
67.1017221164
 20
27.6544559576
 10
67.0983667479
 20
27.6582119673
 10
67.0946608184
 20
27.661617416
 10
67.0907044882
 20
27.6645220634
 10
67.0864476773
 20
27.6670260698
 10
67.0819905459
 20
27.6690292749
 10
67.0771828536
 20
27.670631839
 10
67.0721748408
 20
27.6717336019
 10
67.0668663472
 20
27.6724347237
 10
67.061307453
 20
27.6726350442
 10
67.061307453
 20
27.6726350442
 10
67.0555482382
 20
27.6723846435
 10
67.0500394241
 20
27.6716835217
 10
67.0447810107
 20
27.6704315185
 10
67.0397729979
 20
27.6687287942
 10
67.0350153857
 20
27.6665753487
 10
67.0305582543
 20
27.6638710217
 10
67.0263014434
 20
27.6607159737
 10
67.0222950331
 20
27.6570601243
 10
67.0186892639
 20
27.653053714
 10
67.0155342158
 20
27.648746823
 10
67.012879969
 20
27.6441394512
 10
67.0107265235
 20
27.6392315987
 10
67.0090237991
 20
27.6340733455
 10
67.0078218761
 20
27.6286146115
 10
67.0071207543
 20
27.6228553967
 10
67.0068703536
 20
27.6167957012
 10
67.0068703536
 20
27.6167957012
 10
67.0071207543
 20
27.6113870474
 10
67.0077717959
 20
27.6062287942
 10
67.0089236389
 20
27.6013209416
 10
67.010526203
 20
27.5967135698
 10
67.0125794882
 20
27.5923065185
 10
67.0150834947
 20
27.588199948
 10
67.0180883023
 20
27.5843437781
 10
67.0214937511
 20
27.5807380089
 10
67.0252998408
 20
27.5774828006
 10
67.0294064113
 20
27.5746783134
 10
67.0338134626
 20
27.5722744673
 10
67.0385209947
 20
27.5703213423
 10
67.0435290075
 20
27.5688189384
 10
67.0488875812
 20
27.5677171756
 10
67.0544965556
 20
27.5670661339
 10
67.0604060107
 20
27.5668658134
 10
67.0604060107
 20
27.5668658134
 10
67.0659649049
 20
27.5670661339
 10
67.0713234786
 20
27.5677171756
 10
67.0763815716
 20
27.5688189384
 10
67.0811892639
 20
27.5703213423
 10
67.0857465556
 20
27.5722744673
 10
67.0900534466
 20
27.5746783134
 10
67.094109937
 20
27.5774828006
 10
67.0979160267
 20
27.5807380089
 10
67.1013715556
 20
27.5843938583
 10
67.1043763632
 20
27.5883501884
 10
67.1068803697
 20
27.5926570794
 10
67.108983735
 20
27.5973145314
 10
67.1105862991
 20
27.602272464
 10
67.1117381421
 20
27.6075809576
 10
67.1123891838
 20
27.6132400121
 10
67.1126395844
 20
27.6191995474
  0
LWPOLYLINE
  5
10C
330
1F
100
AcDbEntity
  8
0
  6
Continuous
 62
     7
100
AcDbPolyline
 90
      124
 70
   128
 43
0.0
 10
66.6373968124
 20
25.3405593252
 10
66.6326737266
 20
25.3423622098
 10
66.6282666753
 20
25.344365415
 10
66.6241601048
 20
25.3465188605
 10
66.620354015
 20
25.3488726265
 10
66.6168484061
 20
25.351426713
 10
66.613693358
 20
25.35413104
 10
66.6108387907
 20
25.3570356874
 10
66.6083347843
 20
25.3600905752
 10
66.6041781336
 20
25.3667512323
 10
66.6012234061
 20
25.3740128509
 10
66.5994706016
 20
25.381875431
 10
66.59886964
 20
25.3903890528
 10
66.59886964
 20
25.3903890528
 10
66.5991701208
 20
25.3969495496
 10
66.6001717234
 20
25.4032095656
 10
66.6017242073
 20
25.409219181
 10
66.6039778131
 20
25.4149783957
 10
66.6068323804
 20
25.4204371297
 10
66.6103880695
 20
25.425645463
 10
66.61449464
 20
25.4306033957
 10
66.6193023323
 20
25.4352608477
 10
66.6246108259
 20
25.4395176585
 10
66.6303700407
 20
25.443223588
 10
66.6365799766
 20
25.446328556
 10
66.6431404734
 20
25.4488826425
 10
66.6501516913
 20
25.4508858477
 10
66.6576136304
 20
25.4522880912
 10
66.6654762106
 20
25.4531394534
 10
66.6737394317
 20
25.4534399342
 10
66.6737394317
 20
25.4534399342
 10
66.682052733
 20
25.4531394534
 10
66.6899653932
 20
25.4522880912
 10
66.6974774125
 20
25.4508357675
 10
66.7045387106
 20
25.4487824823
 10
66.7111993676
 20
25.4461783156
 10
66.7174593836
 20
25.4429731874
 10
66.7232686785
 20
25.4392171778
 10
66.7286773323
 20
25.4348602066
 10
66.7335851849
 20
25.4301025944
 10
66.7377919157
 20
25.4250445015
 10
66.7413976849
 20
25.419786088
 10
66.7443023323
 20
25.4142772739
 10
66.7466060182
 20
25.4084679791
 10
66.7482085823
 20
25.4024082835
 10
66.7492101849
 20
25.3961482675
 10
66.7495106657
 20
25.3895877707
 10
66.7495106657
 20
25.3895877707
 10
66.7489097041
 20
25.3813746297
 10
66.7471568997
 20
25.37366229
 10
66.7442522522
 20
25.3665509118
 10
66.7401456817
 20
25.359990415
 10
66.7348872682
 20
25.3540809598
 10
66.7284269317
 20
25.3488726265
 10
66.720714592
 20
25.344365415
 10
66.7118504093
 20
25.3405593252
 10
66.7118504093
 20
25.3405593252
 10
66.7174593836
 20
25.3385561201
 10
66.7227177971
 20
25.3362023541
 10
66.7276256497
 20
25.3335981874
 10
66.7322330214
 20
25.3307436201
 10
66.7364397522
 20
25.3275384919
 10
66.7403460022
 20
25.324082963
 10
66.7438516112
 20
25.3203269534
 10
66.7470567394
 20
25.316270463
 10
66.7498612266
 20
25.311963572
 10
66.7523151529
 20
25.3074563605
 10
66.7544185182
 20
25.3027488284
 10
66.7561212426
 20
25.297891056
 10
66.7574233259
 20
25.2927328028
 10
66.7583748484
 20
25.2874243092
 10
66.7589257298
 20
25.2819154951
 10
66.7591260503
 20
25.2762063605
 10
66.7591260503
 20
25.2762063605
 10
66.7587754894
 20
25.2683437803
 10
66.7576737266
 20
25.260781681
 10
66.7558207618
 20
25.2535200624
 10
66.7532666753
 20
25.2466090047
 10
66.750011467
 20
25.2399984278
 10
66.7459549766
 20
25.2337384118
 10
66.7411973644
 20
25.2277788765
 10
66.7357386304
 20
25.222119822
 10
66.7296789349
 20
25.2170116489
 10
66.7231184381
 20
25.2125545175
 10
66.7161072202
 20
25.2087985079
 10
66.7086452811
 20
25.20569354
 10
66.7007326208
 20
25.2032896938
 10
66.6923692394
 20
25.2015869694
 10
66.6835050567
 20
25.2005853669
 10
66.6741901529
 20
25.200234806
 10
66.6741901529
 20
25.200234806
 10
66.664875249
 20
25.2005853669
 10
66.6560110663
 20
25.2015869694
 10
66.6476476849
 20
25.2033397739
 10
66.6397350247
 20
25.2057436201
 10
66.6322730856
 20
25.2087985079
 10
66.6252618676
 20
25.2126045977
 10
66.6187013708
 20
25.2170617291
 10
66.6126416753
 20
25.2222199823
 10
66.6071829413
 20
25.2278790368
 10
66.6024253291
 20
25.2338886521
 10
66.5983688388
 20
25.2402488284
 10
66.5951136304
 20
25.2469094855
 10
66.5925595439
 20
25.2539707835
 10
66.5907065791
 20
25.2613325624
 10
66.5896048163
 20
25.268994822
 10
66.5892542554
 20
25.2770577227
 10
66.5892542554
 20
25.2770577227
 10
66.5894545759
 20
25.283067338
 10
66.5900555375
 20
25.2888265528
 10
66.5910070599
 20
25.2942852868
 10
66.5924093035
 20
25.2995437002
 10
66.594162108
 20
25.304551713
 10
66.5963155535
 20
25.3093093252
 10
66.5988195599
 20
25.3137664566
 10
66.6017742875
 20
25.3180232675
 10
66.6050795759
 20
25.3219795977
 10
66.6086853452
 20
25.325635447
 10
66.6126416753
 20
25.3289407355
 10
66.6169485663
 20
25.3319455432
 10
66.6215559381
 20
25.3345497098
 10
66.6265138708
 20
25.3369034759
 10
66.6318223644
 20
25.338906681
 10
66.6374313388
 20
25.3405593252
  0
LWPOLYLINE
  5
10D
330
1F
100
AcDbEntity
  8
0
  6
Continuous
 62
     7
100
AcDbPolyline
 90
       68
 70
   128
 43
0.0
 10
66.6308999062
 20
25.3902388124
 10
66.6311212426
 20
25.3863325624
 10
66.6316220439
 20
25.3826266329
 10
66.6325234862
 20
25.3791210239
 10
66.6337754894
 20
25.3757656553
 10
66.6353279734
 20
25.3726106073
 10
66.6372810984
 20
25.3696057996
 10
66.6395847843
 20
25.3668013124
 10
66.6422390311
 20
25.3641971457
 10
66.6452438388
 20
25.3618433797
 10
66.6484990471
 20
25.3597900944
 10
66.6521048163
 20
25.35803729
 10
66.6559609862
 20
25.3566350464
 10
66.660167717
 20
25.3554832034
 10
66.6646749285
 20
25.3547320015
 10
66.6694325407
 20
25.3542312002
 10
66.6745407138
 20
25.3540809598
 10
66.6745407138
 20
25.3540809598
 10
66.6794986464
 20
25.3542312002
 10
66.6842061785
 20
25.3547320015
 10
66.6885631497
 20
25.3554832034
 10
66.6926697202
 20
25.3565849662
 10
66.6964758099
 20
25.3579872098
 10
66.700031499
 20
25.3597400143
 10
66.7032366272
 20
25.3617432194
 10
66.7061913548
 20
25.3640969855
 10
66.7088456016
 20
25.3667011521
 10
66.7110992073
 20
25.3694054791
 10
66.7130523323
 20
25.3722600464
 10
66.7146548964
 20
25.3753149342
 10
66.7158568195
 20
25.3784199021
 10
66.7167582618
 20
25.3817251906
 10
66.7172590631
 20
25.3851807194
 10
66.7174593836
 20
25.3887364085
 10
66.7174593836
 20
25.3887364085
 10
66.7172590631
 20
25.392442338
 10
66.7167582618
 20
25.3959980271
 10
66.7158067394
 20
25.399453556
 10
66.7145547362
 20
25.4027087643
 10
66.712902092
 20
25.4058137323
 10
66.710948967
 20
25.4087684598
 10
66.7085451208
 20
25.411572947
 10
66.7058407939
 20
25.4142271938
 10
66.7028359862
 20
25.4166811201
 10
66.6995306977
 20
25.4187844855
 10
66.6959750086
 20
25.42053729
 10
66.6921689189
 20
25.4219896137
 10
66.6880623484
 20
25.4231414566
 10
66.6837053772
 20
25.4239427387
 10
66.6790980054
 20
25.42444354
 10
66.6741901529
 20
25.4245937803
 10
66.6741901529
 20
25.4245937803
 10
66.6692823003
 20
25.42444354
 10
66.6646248484
 20
25.4239427387
 10
66.6602177971
 20
25.4231915368
 10
66.6561613067
 20
25.4220897739
 10
66.6523051368
 20
25.4206374502
 10
66.6487494477
 20
25.4188846457
 10
66.6454441593
 20
25.4168313605
 10
66.6424393516
 20
25.4144775944
 10
66.6397350247
 20
25.4118734278
 10
66.6373812586
 20
25.4091691009
 10
66.6354281336
 20
25.4063145335
 10
66.6338255695
 20
25.403359806
 10
66.6325234862
 20
25.400254838
 10
66.6316220439
 20
25.3970497098
 10
66.6311212426
 20
25.3936943412
 10
66.6309209221
 20
25.3902388124
  0
LWPOLYLINE
  5
10E
330
1F
100
AcDbEntity
  8
0
  6
Continuous
 62
     7
100
AcDbPolyline
 90
       64
 70
   128
 43
0.0
 10
66.6213035583
 20
25.2776586842
 10
66.6216560984
 20
25.2714988284
 10
66.6227077811
 20
25.2653890528
 10
66.6245106657
 20
25.2594295175
 10
66.626964592
 20
25.2535200624
 10
66.6302698804
 20
25.2480112483
 10
66.6346268516
 20
25.2431534759
 10
66.639885265
 20
25.2389968252
 10
66.6461953612
 20
25.2354411361
 10
66.6530563388
 20
25.2326366489
 10
66.6600675567
 20
25.2306835239
 10
66.6671789349
 20
25.2294816009
 10
66.6744405535
 20
25.2290809598
 10
66.6744405535
 20
25.2290809598
 10
66.6804000888
 20
25.2292812803
 10
66.6860591432
 20
25.229932322
 10
66.6913676368
 20
25.2309840047
 10
66.6963255695
 20
25.2324363284
 10
66.7009830214
 20
25.2343393733
 10
66.7053399926
 20
25.2366430592
 10
66.7093464029
 20
25.2393473861
 10
66.7130022522
 20
25.2425024342
 10
66.7163075407
 20
25.2460080432
 10
66.719162108
 20
25.2497139727
 10
66.7215659541
 20
25.2536202227
 10
66.7235691593
 20
25.2577768733
 10
66.7250715631
 20
25.2621839246
 10
66.7261733259
 20
25.2667912964
 10
66.7268744477
 20
25.2715989887
 10
66.7270747682
 20
25.2766570816
 10
66.7270747682
 20
25.2766570816
 10
66.7268243676
 20
25.2818153348
 10
66.7261733259
 20
25.2867231874
 10
66.725021483
 20
25.2914307194
 10
66.723468999
 20
25.2958878509
 10
66.7214157138
 20
25.3001446618
 10
66.7189117073
 20
25.304151072
 10
66.7159569798
 20
25.3079070816
 10
66.7125515311
 20
25.3114627707
 10
66.7087454413
 20
25.3146678989
 10
66.7046388708
 20
25.3174723861
 10
66.7002318195
 20
25.3198762323
 10
66.6955242875
 20
25.3217792771
 10
66.6904661945
 20
25.323281681
 10
66.6850575407
 20
25.3243834438
 10
66.6793984862
 20
25.3250344855
 10
66.6733888708
 20
25.325234806
 10
66.6733888708
 20
25.325234806
 10
66.6675294958
 20
25.3250344855
 10
66.6619706016
 20
25.3243834438
 10
66.6567622682
 20
25.3233317611
 10
66.6518043356
 20
25.3218293573
 10
66.6471969638
 20
25.3199263124
 10
66.6429401529
 20
25.3175725464
 10
66.6389337426
 20
25.3148181393
 10
66.6352778932
 20
25.3116130111
 10
66.6320226849
 20
25.3081074021
 10
66.6291681176
 20
25.3044014727
 10
66.6267642714
 20
25.3004952227
 10
66.6248111464
 20
25.296338572
 10
66.6232586625
 20
25.2919816009
 10
66.6221568997
 20
25.2874243092
 10
66.621505858
 20
25.282666697
 10
66.6213055375
 20
25.2776586842
  0
LWPOLYLINE
  5
10F
330
1F
100
AcDbEntity
  8
0
  6
Continuous
 62
     7
100
AcDbPolyline
 90
       28
 70
   128
 43
0.0
 10
66.9097304344
 20
25.2034399342
 10
66.8777157939
 20
25.2034399342
 10
66.8777157939
 20
25.2034399342
 10
66.8777157939
 20
25.3982516329
 10
66.8777157939
 20
25.3982516329
 10
66.871505858
 20
25.3929932194
 10
66.8643443997
 20
25.387734806
 10
66.8563315791
 20
25.3824263124
 10
66.8473672362
 20
25.3771678989
 10
66.8382025727
 20
25.3722600464
 10
66.8295387106
 20
25.3679531553
 10
66.8213255695
 20
25.3643473861
 10
66.8136132298
 20
25.3613926585
 10
66.8136132298
 20
25.3613926585
 10
66.8136132298
 20
25.3909399342
 10
66.8136132298
 20
25.3909399342
 10
66.8266340631
 20
25.3973001105
 10
66.8388035343
 20
25.4042612483
 10
66.8501717234
 20
25.4118734278
 10
66.8606384702
 20
25.4201366489
 10
66.869953374
 20
25.4286502707
 10
66.8778159541
 20
25.4370637323
 10
66.8842262106
 20
25.4453269534
 10
66.8891340631
 20
25.4534399342
 10
66.8891340631
 20
25.4534399342
 10
66.9097670759
 20
25.4534399342
 10
66.9097670759
 20
25.4534399342
 10
66.9097670759
 20
25.2034399342
  0
LWPOLYLINE
  5
110
330
1F
100
AcDbEntity
  8
0
  6
Continuous
 62
     7
100
AcDbPolyline
 90
      124
 70
   128
 43
0.0
 10
66.3856267929
 20
22.9495229453
 10
66.3809166391
 20
22.9513258299
 10
66.3765095879
 20
22.953329035
 10
66.3724030174
 20
22.9554824805
 10
66.3685969276
 20
22.9578362466
 10
66.3650913186
 20
22.9603903331
 10
66.3619362706
 20
22.96309466
 10
66.3590817033
 20
22.9659993075
 10
66.3565776968
 20
22.9690541953
 10
66.3524210462
 20
22.9757148523
 10
66.3494663186
 20
22.9829764709
 10
66.3477135141
 20
22.9908390511
 10
66.3471125526
 20
22.9993526729
 10
66.3471125526
 20
22.9993526729
 10
66.3474130334
 20
23.0059131696
 10
66.3484146359
 20
23.0121731857
 10
66.3499671199
 20
23.0181828011
 10
66.3522207257
 20
23.0239420158
 10
66.355075293
 20
23.0294007498
 10
66.3586309821
 20
23.0346090831
 10
66.3627375526
 20
23.0395670158
 10
66.3675452449
 20
23.0442244677
 10
66.3728537385
 20
23.0484812786
 10
66.3786129533
 20
23.0521872081
 10
66.3848228891
 20
23.0552921761
 10
66.3913833859
 20
23.0578462626
 10
66.3983946039
 20
23.0598494677
 10
66.405856543
 20
23.0612517113
 10
66.4137191231
 20
23.0621030735
 10
66.4219823443
 20
23.0624035543
 10
66.4219823443
 20
23.0624035543
 10
66.4302956456
 20
23.0621030735
 10
66.4382083058
 20
23.0612517113
 10
66.445720325
 20
23.0597993876
 10
66.4527816231
 20
23.0577461023
 10
66.4594422802
 20
23.0551419357
 10
66.4657022962
 20
23.0519368075
 10
66.4715115911
 20
23.0481807979
 10
66.4769202449
 20
23.0438238267
 10
66.4818280975
 20
23.0390662145
 10
66.4860348283
 20
23.0340081216
 10
66.4896405975
 20
23.0287497081
 10
66.4925452449
 20
23.023240894
 10
66.4948489308
 20
23.0174315991
 10
66.4964514949
 20
23.0113719036
 10
66.4974530975
 20
23.0051118876
 10
66.4977535783
 20
22.9985513908
 10
66.4977535783
 20
22.9985513908
 10
66.4971526167
 20
22.9903382498
 10
66.4953998122
 20
22.98262591
 10
66.4924951648
 20
22.9755145318
 10
66.4883885943
 20
22.968954035
 10
66.4831301808
 20
22.9630445799
 10
66.4766698443
 20
22.9578362466
 10
66.4689575045
 20
22.953329035
 10
66.4600933218
 20
22.9495229453
 10
66.4600933218
 20
22.9495229453
 10
66.4657022962
 20
22.9475197402
 10
66.4709607097
 20
22.9451659741
 10
66.4758685622
 20
22.9425618075
 10
66.480475934
 20
22.9397072402
 10
66.4846826648
 20
22.936502112
 10
66.4885889148
 20
22.9330465831
 10
66.4920945238
 20
22.9292905735
 10
66.495299652
 20
22.9252340831
 10
66.4981041391
 20
22.9209271921
 10
66.5005580654
 20
22.9164199805
 10
66.5026614308
 20
22.9117124485
 10
66.5043641552
 20
22.9068546761
 10
66.5056662385
 20
22.9016964229
 10
66.5066177609
 20
22.8963879293
 10
66.5071686424
 20
22.8908791152
 10
66.5073689629
 20
22.8851699805
 10
66.5073689629
 20
22.8851699805
 10
66.507018402
 20
22.8773074004
 10
66.5059166391
 20
22.8697453011
 10
66.5040636744
 20
22.8624836825
 10
66.5015095879
 20
22.8555726248
 10
66.4982543795
 20
22.8489620479
 10
66.4941978891
 20
22.8427020318
 10
66.489440277
 20
22.8367424966
 10
66.483981543
 20
22.8310834421
 10
66.4779218475
 20
22.825975269
 10
66.4713613507
 20
22.8215181376
 10
66.4643501327
 20
22.817762128
 10
66.4568881936
 20
22.81465716
 10
66.4489755334
 20
22.8122533139
 10
66.440612152
 20
22.8105505895
 10
66.4317479693
 20
22.809548987
 10
66.4224330654
 20
22.8091984261
 10
66.4224330654
 20
22.8091984261
 10
66.4131181616
 20
22.809548987
 10
66.4042539789
 20
22.8105505895
 10
66.3958905975
 20
22.812303394
 10
66.3879779372
 20
22.8147072402
 10
66.3805159981
 20
22.817762128
 10
66.3735047802
 20
22.8215682177
 10
66.3669442834
 20
22.8260253491
 10
66.3608845879
 20
22.8311836023
 10
66.3554258539
 20
22.8368426568
 10
66.3506682417
 20
22.8428522722
 10
66.3466117513
 20
22.8492124485
 10
66.343356543
 20
22.8558731055
 10
66.3408024565
 20
22.8629344036
 10
66.3389494917
 20
22.8702961825
 10
66.3378477289
 20
22.8779584421
 10
66.337497168
 20
22.8860213427
 10
66.337497168
 20
22.8860213427
 10
66.3376974885
 20
22.8920309581
 10
66.33829845
 20
22.8977901729
 10
66.3392499725
 20
22.9032489068
 10
66.3406522161
 20
22.9085073203
 10
66.3424050206
 20
22.9135153331
 10
66.3445584661
 20
22.9182729453
 10
66.3470624725
 20
22.9227300767
 10
66.3500172
 20
22.9269868876
 10
66.3533224885
 20
22.9309432177
 10
66.3569282577
 20
22.9345990671
 10
66.3608845879
 20
22.9379043555
 10
66.3651914789
 20
22.9409091632
 10
66.3697988507
 20
22.9435133299
 10
66.3747567834
 20
22.9458670959
 10
66.380065277
 20
22.9478703011
 10
66.3856742513
 20
22.9495229453
  0
LWPOLYLINE
  5
111
330
1F
100
AcDbEntity
  8
0
  6
Continuous
 62
     7
100
AcDbPolyline
 90
       68
 70
   128
 43
0.0
 10
66.3791298866
 20
22.9992024325
 10
66.3793641552
 20
22.9952961825
 10
66.3798649565
 20
22.991590253
 10
66.3807663988
 20
22.988084644
 10
66.382018402
 20
22.9847292754
 10
66.3835708859
 20
22.9815742273
 10
66.3855240109
 20
22.9785694196
 10
66.3878276968
 20
22.9757649325
 10
66.3904819436
 20
22.9731607658
 10
66.3934867513
 20
22.9708069998
 10
66.3967419597
 20
22.9687537145
 10
66.4003477289
 20
22.96700091
 10
66.4042038988
 20
22.9655986664
 10
66.4084106295
 20
22.9644468235
 10
66.4129178411
 20
22.9636956216
 10
66.4176754533
 20
22.9631948203
 10
66.4227836263
 20
22.9630445799
 10
66.4227836263
 20
22.9630445799
 10
66.427741559
 20
22.9631948203
 10
66.4324490911
 20
22.9636956216
 10
66.4368060622
 20
22.9644468235
 10
66.4409126327
 20
22.9655485863
 10
66.4447187225
 20
22.9669508299
 10
66.4482744116
 20
22.9687036344
 10
66.4514795398
 20
22.9707068395
 10
66.4544342674
 20
22.9730606055
 10
66.4570885141
 20
22.9756647722
 10
66.4593421199
 20
22.9783690991
 10
66.4612952449
 20
22.9812236664
 10
66.462897809
 20
22.9842785543
 10
66.4640997321
 20
22.9873835222
 10
66.4650011744
 20
22.9906888107
 10
66.4655019757
 20
22.9941443395
 10
66.4657022962
 20
22.9977000286
 10
66.4657022962
 20
22.9977000286
 10
66.4655019757
 20
23.0014059581
 10
66.4650011744
 20
23.0049616472
 10
66.464049652
 20
23.0084171761
 10
66.4627976488
 20
23.0116723844
 10
66.4611450045
 20
23.0147773523
 10
66.4591918795
 20
23.0177320799
 10
66.4567880334
 20
23.0205365671
 10
66.4540837065
 20
23.0231908139
 10
66.4510788988
 20
23.0256447402
 10
66.4477736103
 20
23.0277481055
 10
66.4442179212
 20
23.02950091
 10
66.4404118315
 20
23.0309532337
 10
66.4363052609
 20
23.0321050767
 10
66.4319482898
 20
23.0329063587
 10
66.427340918
 20
23.03340716
 10
66.4224330654
 20
23.0335574004
 10
66.4224330654
 20
23.0335574004
 10
66.4175252129
 20
23.03340716
 10
66.4128677609
 20
23.0329063587
 10
66.4084607097
 20
23.0321551568
 10
66.4044042193
 20
23.031053394
 10
66.4005480494
 20
23.0296010703
 10
66.3969923603
 20
23.0278482658
 10
66.3936870718
 20
23.0257949805
 10
66.3906822641
 20
23.0234412145
 10
66.3879779372
 20
23.0208370479
 10
66.3856241712
 20
23.0181327209
 10
66.3836710462
 20
23.0152781536
 10
66.3820684821
 20
23.0123234261
 10
66.3807663988
 20
23.0092184581
 10
66.3798649565
 20
23.0060133299
 10
66.3793641552
 20
23.0026579613
 10
66.3791638347
 20
22.9992024325
  0
LWPOLYLINE
  5
112
330
1F
100
AcDbEntity
  8
0
  6
Continuous
 62
     7
100
AcDbPolyline
 90
       64
 70
   128
 43
0.0
 10
66.3695335388
 20
22.8866223043
 10
66.3698990109
 20
22.8804624485
 10
66.3709506936
 20
22.8743526729
 10
66.3727535783
 20
22.8683931376
 10
66.3752075045
 20
22.8624836825
 10
66.378512793
 20
22.8569748684
 10
66.3828697641
 20
22.8521170959
 10
66.3881281776
 20
22.8479604453
 10
66.3944382738
 20
22.8444047562
 10
66.4012992513
 20
22.841600269
 10
66.4083104693
 20
22.839647144
 10
66.4154218475
 20
22.8384452209
 10
66.4226834661
 20
22.8380445799
 10
66.4226834661
 20
22.8380445799
 10
66.4286430013
 20
22.8382449004
 10
66.4343020558
 20
22.8388959421
 10
66.4396105494
 20
22.8399476248
 10
66.4445684821
 20
22.8413999485
 10
66.449225934
 20
22.8433029934
 10
66.4535829052
 20
22.8456066793
 10
66.4575893154
 20
22.8483110062
 10
66.4612451648
 20
22.8514660543
 10
66.4645504533
 20
22.8549716632
 10
66.4674050206
 20
22.8586775927
 10
66.4698088667
 20
22.8625838427
 10
66.4718120718
 20
22.8667404934
 10
66.4733144757
 20
22.8711475446
 10
66.4744162385
 20
22.8757549164
 10
66.4751173603
 20
22.8805626087
 10
66.4753176808
 20
22.8856207017
 10
66.4753176808
 20
22.8856207017
 10
66.4750672802
 20
22.8907789549
 10
66.4744162385
 20
22.8956868075
 10
66.4732643956
 20
22.9003943395
 10
66.4717119116
 20
22.9048514709
 10
66.4696586263
 20
22.9091082818
 10
66.4671546199
 20
22.9131146921
 10
66.4641998924
 20
22.9168707017
 10
66.4607944436
 20
22.9204263908
 10
66.4569883539
 20
22.923631519
 10
66.4528817834
 20
22.9264360062
 10
66.4484747321
 20
22.9288398523
 10
66.4437672
 20
22.9307428972
 10
66.4387091071
 20
22.9322453011
 10
66.4333004533
 20
22.9333470639
 10
66.4276413988
 20
22.9339981055
 10
66.4216317834
 20
22.9341984261
 10
66.4216317834
 20
22.9341984261
 10
66.4157724084
 20
22.9339981055
 10
66.4102135141
 20
22.9333470639
 10
66.4050051808
 20
22.9322953812
 10
66.4000472481
 20
22.9307929773
 10
66.3954398763
 20
22.9288899325
 10
66.3911830654
 20
22.9265361664
 10
66.3871766552
 20
22.9237817594
 10
66.3835208058
 20
22.9205766312
 10
66.3802655975
 20
22.9170710222
 10
66.3774110302
 20
22.9133650927
 10
66.375007184
 20
22.9094588427
 10
66.373054059
 20
22.9053021921
 10
66.371501575
 20
22.9009452209
 10
66.3703998122
 20
22.8963879293
 10
66.3697487706
 20
22.8916303171
 10
66.36954845
 20
22.8866223043
  0
LWPOLYLINE
  5
113
330
1F
100
AcDbEntity
  8
0
  6
Continuous
 62
     7
100
AcDbPolyline
 90
       22
 70
   128
 43
0.0
 10
66.6451454163
 20
22.8124035543
 10
66.6451894757
 20
22.8733009902
 10
66.6451894757
 20
22.8733009902
 10
66.5265997321
 20
22.8733009902
 10
66.5265997321
 20
22.8733009902
 10
66.5265997321
 20
22.9053522722
 10
66.5265997321
 20
22.9053522722
 10
66.6515997321
 20
23.0591984261
 10
66.6515997321
 20
23.0591984261
 10
66.6772407577
 20
23.0591984261
 10
66.6772407577
 20
23.0591984261
 10
66.6772407577
 20
22.9053522722
 10
66.6772407577
 20
22.9053522722
 10
66.7092920398
 20
22.9053522722
 10
66.7092920398
 20
22.9053522722
 10
66.7092920398
 20
22.8733009902
 10
66.7092920398
 20
22.8733009902
 10
66.6772407577
 20
22.8733009902
 10
66.6772407577
 20
22.8733009902
 10
66.6772407577
 20
22.8124035543
 10
66.6772407577
 20
22.8124035543
 10
66.6451894757
 20
22.8124035543
  0
LWPOLYLINE
  5
114
330
1F
100
AcDbEntity
  8
0
  6
Continuous
 62
     7
100
AcDbPolyline
 90
        6
 70
   128
 43
0.0
 10
66.6451454163
 20
22.9053522722
 10
66.6451894757
 20
23.0012557177
 10
66.6451894757
 20
23.0012557177
 10
66.5672147161
 20
22.9053522722
 10
66.5672147161
 20
22.9053522722
 10
66.6451894757
 20
22.9053522722
  0
LWPOLYLINE
  5
115
330
1F
100
AcDbEntity
  8
0
  6
Continuous
 62
     7
100
AcDbPolyline
 90
      124
 70
   128
 43
0.0
 10
66.2954449654
 20
20.4719379431
 10
66.290746203
 20
20.4737408278
 10
66.2863391517
 20
20.4757440329
 10
66.2822325812
 20
20.4778974784
 10
66.2784264914
 20
20.4802512444
 10
66.2749208824
 20
20.482805331
 10
66.2717658344
 20
20.4855096579
 10
66.2689112671
 20
20.4884143053
 10
66.2664072607
 20
20.4914691931
 10
66.26225061
 20
20.4981298502
 10
66.2592958824
 20
20.5053914688
 10
66.257543078
 20
20.5132540489
 10
66.2569421164
 20
20.5217676707
 10
66.2569421164
 20
20.5217676707
 10
66.2572425972
 20
20.5283281675
 10
66.2582441998
 20
20.5345881835
 10
66.2597966837
 20
20.5405977989
 10
66.2620502895
 20
20.5463570137
 10
66.2649048568
 20
20.5518157476
 10
66.2684605459
 20
20.557024081
 10
66.2725671164
 20
20.5619820137
 10
66.2773748087
 20
20.5666394656
 10
66.2826833023
 20
20.5708962765
 10
66.2884425171
 20
20.574602206
 10
66.294652453
 20
20.5777071739
 10
66.3012129498
 20
20.5802612605
 10
66.3082241677
 20
20.5822644656
 10
66.3156861068
 20
20.5836667092
 10
66.3235486869
 20
20.5845180714
 10
66.3318119081
 20
20.5848185521
 10
66.3318119081
 20
20.5848185521
 10
66.3401252094
 20
20.5845180714
 10
66.3480378696
 20
20.5836667092
 10
66.3555498889
 20
20.5822143855
 10
66.3626111869
 20
20.5801611002
 10
66.369271844
 20
20.5775569335
 10
66.37553186
 20
20.5743518053
 10
66.3813411549
 20
20.5705957957
 10
66.3867498087
 20
20.5662388246
 10
66.3916576613
 20
20.5614812124
 10
66.3958643921
 20
20.5564231194
 10
66.3994701613
 20
20.551164706
 10
66.4023748087
 20
20.5456558919
 10
66.4046784946
 20
20.539846597
 10
66.4062810587
 20
20.5337869015
 10
66.4072826613
 20
20.5275268855
 10
66.4075831421
 20
20.5209663887
 10
66.4075831421
 20
20.5209663887
 10
66.4069821805
 20
20.5127532476
 10
66.405229376
 20
20.5050409079
 10
66.4023247286
 20
20.4979295297
 10
66.3982181581
 20
20.4913690329
 10
66.3929597446
 20
20.4854595778
 10
66.3864994081
 20
20.4802512444
 10
66.3787870683
 20
20.4757440329
 10
66.3699228857
 20
20.4719379431
 10
66.3699228857
 20
20.4719379431
 10
66.37553186
 20
20.469934738
 10
66.3807902735
 20
20.467580972
 10
66.385698126
 20
20.4649768053
 10
66.3903054978
 20
20.462122238
 10
66.3945122286
 20
20.4589171098
 10
66.3984184786
 20
20.455461581
 10
66.4019240876
 20
20.4517055714
 10
66.4051292158
 20
20.447649081
 10
66.407933703
 20
20.4433421899
 10
66.4103876292
 20
20.4388349784
 10
66.4124909946
 20
20.4341274464
 10
66.414193719
 20
20.4292696739
 10
66.4154958023
 20
20.4241114207
 10
66.4164473248
 20
20.4188029271
 10
66.4169982062
 20
20.413294113
 10
66.4171985267
 20
20.4075849784
 10
66.4171985267
 20
20.4075849784
 10
66.4168479658
 20
20.3997223983
 10
66.415746203
 20
20.3921602989
 10
66.4138932382
 20
20.3848986803
 10
66.4113391517
 20
20.3779876226
 10
66.4080839433
 20
20.3713770457
 10
66.404027453
 20
20.3651170297
 10
66.3992698408
 20
20.3591574944
 10
66.3938111068
 20
20.3534984399
 10
66.3877514113
 20
20.3483902669
 10
66.3811909145
 20
20.3439331355
 10
66.3741796965
 20
20.3401771258
 10
66.3667177574
 20
20.3370721579
 10
66.3588050972
 20
20.3346683117
 10
66.3504417158
 20
20.3329655874
 10
66.3415775331
 20
20.3319639848
 10
66.3322626292
 20
20.3316134239
 10
66.3322626292
 20
20.3316134239
 10
66.3229477254
 20
20.3319639848
 10
66.3140835427
 20
20.3329655874
 10
66.3057201613
 20
20.3347183919
 10
66.297807501
 20
20.337122238
 10
66.2903455619
 20
20.3401771258
 10
66.283334344
 20
20.3439832156
 10
66.2767738472
 20
20.348440347
 10
66.2707141517
 20
20.3535986002
 10
66.2652554177
 20
20.3592576547
 10
66.2604978055
 20
20.3652672701
 10
66.2564413151
 20
20.3716274464
 10
66.2531861068
 20
20.3782881034
 10
66.2506320203
 20
20.3853494015
 10
66.2487790555
 20
20.3927111803
 10
66.2476772927
 20
20.4003734399
 10
66.2473267318
 20
20.4084363406
 10
66.2473267318
 20
20.4084363406
 10
66.2475270523
 20
20.414445956
 10
66.2481280139
 20
20.4202051707
 10
66.2490795363
 20
20.4256639047
 10
66.2504817799
 20
20.4309223181
 10
66.2522345844
 20
20.435930331
 10
66.2543880299
 20
20.4406879431
 10
66.2568920363
 20
20.4451450746
 10
66.2598467639
 20
20.4494018855
 10
66.2631520523
 20
20.4533582156
 10
66.2667578215
 20
20.4570140649
 10
66.2707141517
 20
20.4603193534
 10
66.2750210427
 20
20.4633241611
 10
66.2796284145
 20
20.4659283278
 10
66.2845863472
 20
20.4682820938
 10
66.2898948408
 20
20.4702852989
 10
66.2955038151
 20
20.4719379431
  0
LWPOLYLINE
  5
116
330
1F
100
AcDbEntity
  8
0
  6
Continuous
 62
     7
100
AcDbPolyline
 90
       68
 70
   128
 43
0.0
 10
66.2889480591
 20
20.5216174303
 10
66.289193719
 20
20.5177111803
 10
66.2896945203
 20
20.5140052508
 10
66.2905959626
 20
20.5104996419
 10
66.2918479658
 20
20.5071442733
 10
66.2934004498
 20
20.5039892252
 10
66.2953535748
 20
20.5009844175
 10
66.2976572607
 20
20.4981799303
 10
66.3003115074
 20
20.4955757637
 10
66.3033163151
 20
20.4932219976
 10
66.3065715235
 20
20.4911687124
 10
66.3101772927
 20
20.4894159079
 10
66.3140334626
 20
20.4880136643
 10
66.3182401933
 20
20.4868618214
 10
66.3227474049
 20
20.4861106194
 10
66.3275050171
 20
20.4856098181
 10
66.3326131901
 20
20.4854595778
 10
66.3326131901
 20
20.4854595778
 10
66.3375711228
 20
20.4856098181
 10
66.3422786549
 20
20.4861106194
 10
66.346635626
 20
20.4868618214
 10
66.3507421965
 20
20.4879635842
 10
66.3545482863
 20
20.4893658278
 10
66.3581039754
 20
20.4911186323
 10
66.3613091036
 20
20.4931218374
 10
66.3642638312
 20
20.4954756034
 10
66.366918078
 20
20.4980797701
 10
66.3691716837
 20
20.500784097
 10
66.3711248087
 20
20.5036386643
 10
66.3727273728
 20
20.5066935521
 10
66.3739292959
 20
20.5097985201
 10
66.3748307382
 20
20.5131038085
 10
66.3753315395
 20
20.5165593374
 10
66.37553186
 20
20.5201150265
 10
66.37553186
 20
20.5201150265
 10
66.3753315395
 20
20.523820956
 10
66.3748307382
 20
20.5273766451
 10
66.3738792158
 20
20.5308321739
 10
66.3726272126
 20
20.5340873823
 10
66.3709745683
 20
20.5371923502
 10
66.3690214433
 20
20.5401470778
 10
66.3666175972
 20
20.5429515649
 10
66.3639132703
 20
20.5456058117
 10
66.3609084626
 20
20.548059738
 10
66.3576031741
 20
20.5501631034
 10
66.354047485
 20
20.5519159079
 10
66.3502413953
 20
20.5533682316
 10
66.3461348248
 20
20.5545200746
 10
66.3417778536
 20
20.5553213566
 10
66.3371704818
 20
20.5558221579
 10
66.3322626292
 20
20.5559723983
 10
66.3322626292
 20
20.5559723983
 10
66.3273547767
 20
20.5558221579
 10
66.3226973248
 20
20.5553213566
 10
66.3182902735
 20
20.5545701547
 10
66.3142337831
 20
20.5534683919
 10
66.3103776132
 20
20.5520160681
 10
66.3068219241
 20
20.5502632637
 10
66.3035166357
 20
20.5482099784
 10
66.300511828
 20
20.5458562124
 10
66.297807501
 20
20.5432520457
 10
66.295453735
 20
20.5405477188
 10
66.29350061
 20
20.5376931515
 10
66.2918980459
 20
20.5347384239
 10
66.2905959626
 20
20.531633456
 10
66.2896945203
 20
20.5284283278
 10
66.289193719
 20
20.5250729592
 10
66.2889933985
 20
20.5216174303
  0
LWPOLYLINE
  5
117
330
1F
100
AcDbEntity
  8
0
  6
Continuous
 62
     7
100
AcDbPolyline
 90
       64
 70
   128
 43
0.0
 10
66.2793517113
 20
20.4090373021
 10
66.2797285748
 20
20.4028774464
 10
66.2807802574
 20
20.3967676707
 10
66.2825831421
 20
20.3908081355
 10
66.2850370683
 20
20.3848986803
 10
66.2883423568
 20
20.3793898662
 10
66.292699328
 20
20.3745320938
 10
66.2979577414
 20
20.3703754431
 10
66.3042678376
 20
20.366819754
 10
66.3111288151
 20
20.3640152669
 10
66.3181400331
 20
20.3620621419
 10
66.3252514113
 20
20.3608602188
 10
66.3325130299
 20
20.3604595778
 10
66.3325130299
 20
20.3604595778
 10
66.3384725651
 20
20.3606598983
 10
66.3441316196
 20
20.3613109399
 10
66.3494401132
 20
20.3623626226
 10
66.3543980459
 20
20.3638149464
 10
66.3590554978
 20
20.3657179912
 10
66.363412469
 20
20.3680216771
 10
66.3674188792
 20
20.370726004
 10
66.3710747286
 20
20.3738810521
 10
66.3743800171
 20
20.3773866611
 10
66.3772345844
 20
20.3810925906
 10
66.3796384305
 20
20.3849988406
 10
66.3816416357
 20
20.3891554912
 10
66.3831440395
 20
20.3935625425
 10
66.3842458023
 20
20.3981699143
 10
66.3849469241
 20
20.4029776066
 10
66.3851472446
 20
20.4080356996
 10
66.3851472446
 20
20.4080356996
 10
66.384896844
 20
20.4131939528
 10
66.3842458023
 20
20.4181018053
 10
66.3830939594
 20
20.4228093374
 10
66.3815414754
 20
20.4272664688
 10
66.3794881901
 20
20.4315232797
 10
66.3769841837
 20
20.4355296899
 10
66.3740294562
 20
20.4392856996
 10
66.3706240074
 20
20.4428413887
 10
66.3668179177
 20
20.4460465169
 10
66.3627113472
 20
20.448851004
 10
66.3583042959
 20
20.4512548502
 10
66.3535967639
 20
20.4531578951
 10
66.3485386709
 20
20.4546602989
 10
66.3431300171
 20
20.4557620617
 10
66.3374709626
 20
20.4564131034
 10
66.3314613472
 20
20.4566134239
 10
66.3314613472
 20
20.4566134239
 10
66.3256019722
 20
20.4564131034
 10
66.320043078
 20
20.4557620617
 10
66.3148347446
 20
20.454710379
 10
66.3098768119
 20
20.4532079752
 10
66.3052694401
 20
20.4513049303
 10
66.3010126292
 20
20.4489511643
 10
66.297006219
 20
20.4461967573
 10
66.2933503696
 20
20.442991629
 10
66.2900951613
 20
20.4394860201
 10
66.287240594
 20
20.4357800906
 10
66.2848367478
 20
20.4318738406
 10
66.2828836228
 20
20.4277171899
 10
66.2813311389
 20
20.4233602188
 10
66.280229376
 20
20.4188029271
 10
66.2795783344
 20
20.4140453149
 10
66.2793780139
 20
20.4090373021
  0
LWPOLYLINE
  5
118
330
1F
100
AcDbEntity
  8
0
  6
Continuous
 62
     7
100
AcDbPolyline
 90
      124
 70
   128
 43
0.0
 10
66.4973855019
 20
20.4719379431
 10
66.4926692799
 20
20.4737408278
 10
66.4882622286
 20
20.4757440329
 10
66.4841556581
 20
20.4778974784
 10
66.4803495683
 20
20.4802512444
 10
66.4768439594
 20
20.482805331
 10
66.4736889113
 20
20.4855096579
 10
66.470834344
 20
20.4884143053
 10
66.4683303376
 20
20.4914691931
 10
66.4641736869
 20
20.4981298502
 10
66.4612189594
 20
20.5053914688
 10
66.4594661549
 20
20.5132540489
 10
66.4588651933
 20
20.5217676707
 10
66.4588651933
 20
20.5217676707
 10
66.4591656741
 20
20.5283281675
 10
66.4601672767
 20
20.5345881835
 10
66.4617197607
 20
20.5405977989
 10
66.4639733664
 20
20.5463570137
 10
66.4668279337
 20
20.5518157476
 10
66.4703836228
 20
20.557024081
 10
66.4744901933
 20
20.5619820137
 10
66.4792978857
 20
20.5666394656
 10
66.4846063792
 20
20.5708962765
 10
66.490365594
 20
20.574602206
 10
66.4965755299
 20
20.5777071739
 10
66.5031360267
 20
20.5802612605
 10
66.5101472446
 20
20.5822644656
 10
66.5176091837
 20
20.5836667092
 10
66.5254717639
 20
20.5845180714
 10
66.533734985
 20
20.5848185521
 10
66.533734985
 20
20.5848185521
 10
66.5420482863
 20
20.5845180714
 10
66.5499609465
 20
20.5836667092
 10
66.5574729658
 20
20.5822143855
 10
66.5645342639
 20
20.5801611002
 10
66.5711949209
 20
20.5775569335
 10
66.5774549369
 20
20.5743518053
 10
66.5832642318
 20
20.5705957957
 10
66.5886728857
 20
20.5662388246
 10
66.5935807382
 20
20.5614812124
 10
66.597787469
 20
20.5564231194
 10
66.6013932382
 20
20.551164706
 10
66.6042978857
 20
20.5456558919
 10
66.6066015715
 20
20.539846597
 10
66.6082041357
 20
20.5337869015
 10
66.6092057382
 20
20.5275268855
 10
66.609506219
 20
20.5209663887
 10
66.609506219
 20
20.5209663887
 10
66.6089052574
 20
20.5127532476
 10
66.607152453
 20
20.5050409079
 10
66.6042478055
 20
20.4979295297
 10
66.600141235
 20
20.4913690329
 10
66.5948828215
 20
20.4854595778
 10
66.588422485
 20
20.4802512444
 10
66.5807101453
 20
20.4757440329
 10
66.5718459626
 20
20.4719379431
 10
66.5718459626
 20
20.4719379431
 10
66.5774549369
 20
20.469934738
 10
66.5827133504
 20
20.467580972
 10
66.587621203
 20
20.4649768053
 10
66.5922285748
 20
20.462122238
 10
66.5964353055
 20
20.4589171098
 10
66.6003415555
 20
20.455461581
 10
66.6038471645
 20
20.4517055714
 10
66.6070522927
 20
20.447649081
 10
66.6098567799
 20
20.4433421899
 10
66.6123107062
 20
20.4388349784
 10
66.6144140715
 20
20.4341274464
 10
66.6161167959
 20
20.4292696739
 10
66.6174188792
 20
20.4241114207
 10
66.6183704017
 20
20.4188029271
 10
66.6189212831
 20
20.413294113
 10
66.6191216036
 20
20.4075849784
 10
66.6191216036
 20
20.4075849784
 10
66.6187710427
 20
20.3997223983
 10
66.6176692799
 20
20.3921602989
 10
66.6158163151
 20
20.3848986803
 10
66.6132622286
 20
20.3779876226
 10
66.6100070203
 20
20.3713770457
 10
66.6059505299
 20
20.3651170297
 10
66.6011929177
 20
20.3591574944
 10
66.5957341837
 20
20.3534984399
 10
66.5896744882
 20
20.3483902669
 10
66.5831139914
 20
20.3439331355
 10
66.5761027735
 20
20.3401771258
 10
66.5686408344
 20
20.3370721579
 10
66.5607281741
 20
20.3346683117
 10
66.5523647927
 20
20.3329655874
 10
66.54350061
 20
20.3319639848
 10
66.5341857062
 20
20.3316134239
 10
66.5341857062
 20
20.3316134239
 10
66.5248708023
 20
20.3319639848
 10
66.5160066196
 20
20.3329655874
 10
66.5076432382
 20
20.3347183919
 10
66.499730578
 20
20.337122238
 10
66.4922686389
 20
20.3401771258
 10
66.4852574209
 20
20.3439832156
 10
66.4786969241
 20
20.348440347
 10
66.4726372286
 20
20.3535986002
 10
66.4671784946
 20
20.3592576547
 10
66.4624208824
 20
20.3652672701
 10
66.4583643921
 20
20.3716274464
 10
66.4551091837
 20
20.3782881034
 10
66.4525550972
 20
20.3853494015
 10
66.4507021324
 20
20.3927111803
 10
66.4496003696
 20
20.4003734399
 10
66.4492498087
 20
20.4084363406
 10
66.4492498087
 20
20.4084363406
 10
66.4494501292
 20
20.414445956
 10
66.4500510908
 20
20.4202051707
 10
66.4510026132
 20
20.4256639047
 10
66.4524048568
 20
20.4309223181
 10
66.4541576613
 20
20.435930331
 10
66.4563111068
 20
20.4406879431
 10
66.4588151132
 20
20.4451450746
 10
66.4617698408
 20
20.4494018855
 10
66.4650751292
 20
20.4533582156
 10
66.4686808985
 20
20.4570140649
 10
66.4726372286
 20
20.4603193534
 10
66.4769441196
 20
20.4633241611
 10
66.4815514914
 20
20.4659283278
 10
66.4865094241
 20
20.4682820938
 10
66.4918179177
 20
20.4702852989
 10
66.4974268921
 20
20.4719379431
  0
LWPOLYLINE
  5
119
330
1F
100
AcDbEntity
  8
0
  6
Continuous
 62
     7
100
AcDbPolyline
 90
       68
 70
   128
 43
0.0
 10
66.4908885956
 20
20.5216174303
 10
66.4911167959
 20
20.5177111803
 10
66.4916175972
 20
20.5140052508
 10
66.4925190395
 20
20.5104996419
 10
66.4937710427
 20
20.5071442733
 10
66.4953235267
 20
20.5039892252
 10
66.4972766517
 20
20.5009844175
 10
66.4995803376
 20
20.4981799303
 10
66.5022345844
 20
20.4955757637
 10
66.5052393921
 20
20.4932219976
 10
66.5084946004
 20
20.4911687124
 10
66.5121003696
 20
20.4894159079
 10
66.5159565395
 20
20.4880136643
 10
66.5201632703
 20
20.4868618214
 10
66.5246704818
 20
20.4861106194
 10
66.529428094
 20
20.4856098181
 10
66.5345362671
 20
20.4854595778
 10
66.5345362671
 20
20.4854595778
 10
66.5394941998
 20
20.4856098181
 10
66.5442017318
 20
20.4861106194
 10
66.548558703
 20
20.4868618214
 10
66.5526652735
 20
20.4879635842
 10
66.5564713632
 20
20.4893658278
 10
66.5600270523
 20
20.4911186323
 10
66.5632321805
 20
20.4931218374
 10
66.5661869081
 20
20.4954756034
 10
66.5688411549
 20
20.4980797701
 10
66.5710947607
 20
20.500784097
 10
66.5730478857
 20
20.5036386643
 10
66.5746504498
 20
20.5066935521
 10
66.5758523728
 20
20.5097985201
 10
66.5767538151
 20
20.5131038085
 10
66.5772546164
 20
20.5165593374
 10
66.5774549369
 20
20.5201150265
 10
66.5774549369
 20
20.5201150265
 10
66.5772546164
 20
20.523820956
 10
66.5767538151
 20
20.5273766451
 10
66.5758022927
 20
20.5308321739
 10
66.5745502895
 20
20.5340873823
 10
66.5728976453
 20
20.5371923502
 10
66.5709445203
 20
20.5401470778
 10
66.5685406741
 20
20.5429515649
 10
66.5658363472
 20
20.5456058117
 10
66.5628315395
 20
20.548059738
 10
66.559526251
 20
20.5501631034
 10
66.5559705619
 20
20.5519159079
 10
66.5521644722
 20
20.5533682316
 10
66.5480579017
 20
20.5545200746
 10
66.5437009305
 20
20.5553213566
 10
66.5390935587
 20
20.5558221579
 10
66.5341857062
 20
20.5559723983
 10
66.5341857062
 20
20.5559723983
 10
66.5292778536
 20
20.5558221579
 10
66.5246204017
 20
20.5553213566
 10
66.5202133504
 20
20.5545701547
 10
66.51615686
 20
20.5534683919
 10
66.5123006901
 20
20.5520160681
 10
66.508745001
 20
20.5502632637
 10
66.5054397126
 20
20.5482099784
 10
66.5024349049
 20
20.5458562124
 10
66.499730578
 20
20.5432520457
 10
66.4973768119
 20
20.5405477188
 10
66.4954236869
 20
20.5376931515
 10
66.4938211228
 20
20.5347384239
 10
66.4925190395
 20
20.531633456
 10
66.4916175972
 20
20.5284283278
 10
66.4911167959
 20
20.5250729592
 10
66.4909164754
 20
20.5216174303
  0
LWPOLYLINE
  5
11A
330
1F
100
AcDbEntity
  8
0
  6
Continuous
 62
     7
100
AcDbPolyline
 90
       64
 70
   128
 43
0.0
 10
66.4812922478
 20
20.4090373021
 10
66.4816516517
 20
20.4028774464
 10
66.4827033344
 20
20.3967676707
 10
66.484506219
 20
20.3908081355
 10
66.4869601453
 20
20.3848986803
 10
66.4902654337
 20
20.3793898662
 10
66.4946224049
 20
20.3745320938
 10
66.4998808183
 20
20.3703754431
 10
66.5061909145
 20
20.366819754
 10
66.5130518921
 20
20.3640152669
 10
66.52006311
 20
20.3620621419
 10
66.5271744882
 20
20.3608602188
 10
66.5344361068
 20
20.3604595778
 10
66.5344361068
 20
20.3604595778
 10
66.5403956421
 20
20.3606598983
 10
66.5460546965
 20
20.3613109399
 10
66.5513631901
 20
20.3623626226
 10
66.5563211228
 20
20.3638149464
 10
66.5609785748
 20
20.3657179912
 10
66.5653355459
 20
20.3680216771
 10
66.5693419562
 20
20.370726004
 10
66.5729978055
 20
20.3738810521
 10
66.576303094
 20
20.3773866611
 10
66.5791576613
 20
20.3810925906
 10
66.5815615074
 20
20.3849988406
 10
66.5835647126
 20
20.3891554912
 10
66.5850671164
 20
20.3935625425
 10
66.5861688792
 20
20.3981699143
 10
66.586870001
 20
20.4029776066
 10
66.5870703215
 20
20.4080356996
 10
66.5870703215
 20
20.4080356996
 10
66.5868199209
 20
20.4131939528
 10
66.5861688792
 20
20.4181018053
 10
66.5850170363
 20
20.4228093374
 10
66.5834645523
 20
20.4272664688
 10
66.5814112671
 20
20.4315232797
 10
66.5789072607
 20
20.4355296899
 10
66.5759525331
 20
20.4392856996
 10
66.5725470844
 20
20.4428413887
 10
66.5687409946
 20
20.4460465169
 10
66.5646344241
 20
20.448851004
 10
66.5602273728
 20
20.4512548502
 10
66.5555198408
 20
20.4531578951
 10
66.5504617478
 20
20.4546602989
 10
66.545053094
 20
20.4557620617
 10
66.5393940395
 20
20.4564131034
 10
66.5333844241
 20
20.4566134239
 10
66.5333844241
 20
20.4566134239
 10
66.5275250491
 20
20.4564131034
 10
66.5219661549
 20
20.4557620617
 10
66.5167578215
 20
20.454710379
 10
66.5117998889
 20
20.4532079752
 10
66.5071925171
 20
20.4513049303
 10
66.5029357062
 20
20.4489511643
 10
66.4989292959
 20
20.4461967573
 10
66.4952734465
 20
20.442991629
 10
66.4920182382
 20
20.4394860201
 10
66.4891636709
 20
20.4357800906
 10
66.4867598248
 20
20.4318738406
 10
66.4848066998
 20
20.4277171899
 10
66.4832542158
 20
20.4233602188
 10
66.482152453
 20
20.4188029271
 10
66.4815014113
 20
20.4140453149
 10
66.4813010908
 20
20.4090373021
  0
LWPOLYLINE
  5
11B
330
1F
100
AcDbEntity
  8
0
  6
Continuous
 62
     7
100
AcDbPolyline
 90
       28
 70
   128
 43
0.0
 10
66.8053627014
 20
19.7344849285
 10
66.7733154567
 20
19.7344849285
 10
66.7733154567
 20
19.7344849285
 10
66.7733154567
 20
19.9292966272
 10
66.7733154567
 20
19.9292966272
 10
66.7671055208
 20
19.9240382137
 10
66.7599440624
 20
19.9187798002
 10
66.7519312419
 20
19.9134713067
 10
66.742966899
 20
19.9082128932
 10
66.7338022355
 20
19.9033050406
 10
66.7251383733
 20
19.8989981496
 10
66.7169252323
 20
19.8953923804
 10
66.7092128925
 20
19.8924376528
 10
66.7092128925
 20
19.8924376528
 10
66.7092128925
 20
19.9219849285
 10
66.7092128925
 20
19.9219849285
 10
66.7222337259
 20
19.9283451047
 10
66.734403197
 20
19.9353062426
 10
66.7457713861
 20
19.942918422
 10
66.7562381329
 20
19.9511816432
 10
66.7655530368
 20
19.959695265
 10
66.7734156169
 20
19.9681087265
 10
66.7798258733
 20
19.9763719477
 10
66.7847337259
 20
19.9844849285
 10
66.7847337259
 20
19.9844849285
 10
66.8053667387
 20
19.9844849285
 10
66.8053667387
 20
19.9844849285
 10
66.8053667387
 20
19.7344849285
  0
LWPOLYLINE
  5
11C
330
1F
100
AcDbEntity
  8
0
  6
Continuous
 62
     7
100
AcDbPolyline
 90
        8
 70
   128
 43
0.0
 10
66.9047236443
 20
19.7344849285
 10
66.9047257131
 20
19.7665362105
 10
66.9047257131
 20
19.7665362105
 10
66.9367769951
 20
19.7665362105
 10
66.9367769951
 20
19.7665362105
 10
66.9367769951
 20
19.7344849285
 10
66.9367769951
 20
19.7344849285
 10
66.9047257131
 20
19.7344849285
  0
LWPOLYLINE
  5
11D
330
1F
100
AcDbEntity
  8
0
  6
Continuous
 62
     7
100
AcDbPolyline
 90
       28
 70
   128
 43
0.0
 10
67.1066045761
 20
19.7344849285
 10
67.0745975079
 20
19.7344849285
 10
67.0745975079
 20
19.7344849285
 10
67.0745975079
 20
19.9292966272
 10
67.0745975079
 20
19.9292966272
 10
67.068387572
 20
19.9240382137
 10
67.0612261137
 20
19.9187798002
 10
67.0532132932
 20
19.9134713067
 10
67.0442489502
 20
19.9082128932
 10
67.0350842868
 20
19.9033050406
 10
67.0264204246
 20
19.8989981496
 10
67.0182072836
 20
19.8953923804
 10
67.0104949438
 20
19.8924376528
 10
67.0104949438
 20
19.8924376528
 10
67.0104949438
 20
19.9219849285
 10
67.0104949438
 20
19.9219849285
 10
67.0235157772
 20
19.9283451047
 10
67.0356852483
 20
19.9353062426
 10
67.0470534374
 20
19.942918422
 10
67.0575201842
 20
19.9511816432
 10
67.0668350881
 20
19.959695265
 10
67.0746976682
 20
19.9681087265
 10
67.0811079246
 20
19.9763719477
 10
67.0860157772
 20
19.9844849285
 10
67.0860157772
 20
19.9844849285
 10
67.10664879
 20
19.9844849285
 10
67.10664879
 20
19.9844849285
 10
67.10664879
 20
19.7344849285
  0
LWPOLYLINE
  5
11E
330
1F
100
AcDbEntity
  8
0
  6
Continuous
 62
     7
100
AcDbPolyline
 90
      145
 70
   128
 43
0.0
 10
67.1931505203
 20
19.7953823643
 10
67.2252385336
 20
19.7985874926
 10
67.2252385336
 20
19.7985874926
 10
67.2262902163
 20
19.79367964
 10
67.2275922996
 20
19.7891724285
 10
67.2290947034
 20
19.7849656977
 10
67.2308475079
 20
19.7811596079
 10
67.2328006329
 20
19.777653999
 10
67.2349540784
 20
19.7744989509
 10
67.2373579246
 20
19.7716944637
 10
67.2399620913
 20
19.7692405374
 10
67.2458214663
 20
19.7652341272
 10
67.2524320432
 20
19.76242964
 10
67.259793822
 20
19.7606768355
 10
67.2679068028
 20
19.7601259541
 10
67.2679068028
 20
19.7601259541
 10
67.275018181
 20
19.7605265951
 10
67.2817789983
 20
19.7616784381
 10
67.2881892547
 20
19.7635814829
 10
67.2942489502
 20
19.7662858099
 10
67.2998078445
 20
19.7696411785
 10
67.3046656169
 20
19.7735474285
 10
67.3088222675
 20
19.7779043996
 10
67.3122777964
 20
19.7828122522
 10
67.3152826041
 20
19.7884713067
 10
67.3181371714
 20
19.7950318035
 10
67.3207413381
 20
19.8024937426
 10
67.3231952643
 20
19.8109072041
 10
67.3252986297
 20
19.819871547
 10
67.3267509534
 20
19.8289360502
 10
67.3276523958
 20
19.838200874
 10
67.3279528765
 20
19.8475658579
 10
67.3279528765
 20
19.8475658579
 10
67.3279027964
 20
19.8501199445
 10
67.3278026361
 20
19.8536756336
 10
67.3278026361
 20
19.8536756336
 10
67.3225943028
 20
19.8467645759
 10
67.3165846874
 20
19.8405045599
 10
67.3096235496
 20
19.8349456656
 10
67.3018611297
 20
19.8300878932
 10
67.2934977483
 20
19.8261315631
 10
67.2847337259
 20
19.8232769958
 10
67.2756692227
 20
19.8215742714
 10
67.2662541586
 20
19.82102339
 10
67.2662541586
 20
19.82102339
 10
67.2584416586
 20
19.8213739509
 10
67.2508795592
 20
19.8224256336
 10
67.2436680208
 20
19.8241283579
 10
67.2367569631
 20
19.8265822842
 10
67.2301463861
 20
19.8296872522
 10
67.22383629
 20
19.8334933419
 10
67.2178266746
 20
19.8379504733
 10
67.21211754
 20
19.8431588067
 10
67.2069092067
 20
19.8489180214
 10
67.2024520752
 20
19.8551279573
 10
67.1986459855
 20
19.8617385342
 10
67.1955410175
 20
19.8687998323
 10
67.1930870913
 20
19.8763118515
 10
67.1913843669
 20
19.8842745919
 10
67.1903326842
 20
19.8926880535
 10
67.1899821233
 20
19.901502156
 10
67.1899821233
 20
19.901502156
 10
67.1903326842
 20
19.9106167393
 10
67.191434447
 20
19.9192806015
 10
67.1932373317
 20
19.9274937426
 10
67.1957914182
 20
19.9352060823
 10
67.1989965464
 20
19.942517781
 10
67.2030029567
 20
19.9493286785
 10
67.2077104887
 20
19.9557389349
 10
67.2131191425
 20
19.96164839
 10
67.2190786778
 20
19.9670069637
 10
67.2254388541
 20
19.9716644156
 10
67.2321495913
 20
19.9755706656
 10
67.2392609695
 20
19.9787757938
 10
67.2466728284
 20
19.9812798002
 10
67.2544853284
 20
19.9830826849
 10
67.2626483893
 20
19.9841343676
 10
67.2712120913
 20
19.9844849285
 10
67.2712120913
 20
19.9844849285
 10
67.2774220272
 20
19.9842846079
 10
67.2835318028
 20
19.9836836464
 10
67.2894913381
 20
19.9826319637
 10
67.2953507131
 20
19.9812297201
 10
67.3010097675
 20
19.9793767554
 10
67.3065686618
 20
19.9771732297
 10
67.3119773156
 20
19.9745189829
 10
67.3172858092
 20
19.9714640951
 10
67.3223439022
 20
19.9680586464
 10
67.3271015143
 20
19.9642525567
 10
67.3315085656
 20
19.9601459861
 10
67.3356652163
 20
19.9556888547
 10
67.339471306
 20
19.9508310823
 10
67.3429268349
 20
19.9456728291
 10
67.3461319631
 20
19.940164015
 10
67.3489865304
 20
19.93430464
 10
67.3515406169
 20
19.9279444637
 10
67.3537441425
 20
19.9209332458
 10
67.3555971073
 20
19.913220906
 10
67.3571495913
 20
19.9048074445
 10
67.3583014342
 20
19.8957429413
 10
67.3591527964
 20
19.8860273964
 10
67.3597036778
 20
19.8756107297
 10
67.3598539182
 20
19.8645430214
 10
67.3598539182
 20
19.8645430214
 10
67.3597036778
 20
19.8529745118
 10
67.3591527964
 20
19.8420069637
 10
67.3583014342
 20
19.8316403772
 10
67.3571495913
 20
19.8218747522
 10
67.3555971073
 20
19.8127100887
 10
67.3537441425
 20
19.8041463868
 10
67.3515406169
 20
19.7962337265
 10
67.3489865304
 20
19.7888719477
 10
67.3461319631
 20
19.7820610502
 10
67.3429268349
 20
19.7756507938
 10
67.3393711458
 20
19.7696411785
 10
67.3355149759
 20
19.7640822842
 10
67.3313082451
 20
19.758924031
 10
67.3268010336
 20
19.754216499
 10
67.3219432611
 20
19.7499096079
 10
67.3167349278
 20
19.7460033579
 10
67.3112761938
 20
19.7425478291
 10
67.3055670592
 20
19.7395430214
 10
67.299607524
 20
19.737039015
 10
67.2934476682
 20
19.7349857297
 10
67.2870374118
 20
19.7333330855
 10
67.2804268349
 20
19.7321812426
 10
67.2735658573
 20
19.7315302009
 10
67.2664544791
 20
19.7312798002
 10
67.2664544791
 20
19.7312798002
 10
67.25899254
 20
19.7315302009
 10
67.2518811618
 20
19.7323314829
 10
67.2450702643
 20
19.7336335663
 10
67.2386600079
 20
19.735486531
 10
67.2326003124
 20
19.737840297
 10
67.2268911778
 20
19.7407449445
 10
67.221482524
 20
19.7441503932
 10
67.2164745111
 20
19.7481067233
 10
67.2118671393
 20
19.7525137746
 10
67.2077605688
 20
19.757371547
 10
67.2041047195
 20
19.7626299605
 10
67.2009496714
 20
19.7683390951
 10
67.1982954246
 20
19.7744488708
 10
67.196091899
 20
19.7810093676
 10
67.1943891746
 20
19.7879705054
 10
67.1931872515
 20
19.7953823643
  0
LWPOLYLINE
  5
11F
330
1F
100
AcDbEntity
  8
0
  6
Continuous
 62
     7
100
AcDbPolyline
 90
       68
 70
   128
 43
0.0
 10
67.3277974129
 20
19.9022032778
 10
67.3276023156
 20
19.9082128932
 10
67.3269011938
 20
19.9138719477
 10
67.325799431
 20
19.9192305214
 10
67.324246947
 20
19.9242385342
 10
67.3222437419
 20
19.9289460663
 10
67.3197898156
 20
19.9333531176
 10
67.3168851682
 20
19.9374596881
 10
67.3135297996
 20
19.9412156977
 10
67.3098238701
 20
19.9446211464
 10
67.30586754
 20
19.9475257938
 10
67.3016107291
 20
19.9500298002
 10
67.2971535977
 20
19.9520330054
 10
67.2923459054
 20
19.9536355695
 10
67.2873378925
 20
19.9547373323
 10
67.282029399
 20
19.9554384541
 10
67.2764705047
 20
19.9556387746
 10
67.2764705047
 20
19.9556387746
 10
67.27071129
 20
19.955388374
 10
67.2652024759
 20
19.9546872522
 10
67.2599440624
 20
19.953435249
 10
67.2549360496
 20
19.9517325246
 10
67.2501784374
 20
19.9495790791
 10
67.245721306
 20
19.9468747522
 10
67.2414644951
 20
19.9437197041
 10
67.2374580849
 20
19.9400638547
 10
67.2338523156
 20
19.9360574445
 10
67.2306972675
 20
19.9317505535
 10
67.2280430208
 20
19.9271431817
 10
67.2258895752
 20
19.9222353291
 10
67.2241868509
 20
19.9170770759
 10
67.2229849278
 20
19.9116183419
 10
67.222283806
 20
19.9058591272
 10
67.2220334054
 20
19.8997994317
 10
67.2220334054
 20
19.8997994317
 10
67.222283806
 20
19.8943907778
 10
67.2229348477
 20
19.8892325246
 10
67.2240866906
 20
19.884324672
 10
67.2256892547
 20
19.8797173002
 10
67.22774254
 20
19.875310249
 10
67.2302465464
 20
19.8712036785
 10
67.2332513541
 20
19.8673475086
 10
67.2366568028
 20
19.8637417393
 10
67.2404628925
 20
19.860486531
 10
67.2445694631
 20
19.8576820438
 10
67.2489765143
 20
19.8552781977
 10
67.2536840464
 20
19.8533250727
 10
67.2586920592
 20
19.8518226688
 10
67.2640506329
 20
19.850720906
 10
67.2696596073
 20
19.8500698643
 10
67.2755690624
 20
19.8498695438
 10
67.2755690624
 20
19.8498695438
 10
67.2811279567
 20
19.8500698643
 10
67.2864865304
 20
19.850720906
 10
67.2915446233
 20
19.8518226688
 10
67.2963523156
 20
19.8533250727
 10
67.3009096073
 20
19.8552781977
 10
67.3052164983
 20
19.8576820438
 10
67.3092729887
 20
19.860486531
 10
67.3130790784
 20
19.8637417393
 10
67.3165346073
 20
19.8673975887
 10
67.319539415
 20
19.8713539188
 10
67.3220434214
 20
19.8756608099
 10
67.3241467868
 20
19.8803182618
 10
67.3257493509
 20
19.8852761945
 10
67.3269011938
 20
19.8905846881
 10
67.3275522355
 20
19.8962437426
 10
67.3278026361
 20
19.9022032778
  0
LWPOLYLINE
  5
120
330
1F
100
AcDbEntity
  8
0
  6
Continuous
 62
     7
100
AcDbPolyline
 90
      130
 70
   128
 43
0.0
 10
67.3997402191
 20
19.7344849285
 10
67.3997677804
 20
19.9171772361
 10
67.3997677804
 20
19.9171772361
 10
67.4318190624
 20
19.9171772361
 10
67.4318190624
 20
19.9171772361
 10
67.4318190624
 20
19.8886816432
 10
67.4318190624
 20
19.8886816432
 10
67.4364765143
 20
19.8954925406
 10
67.4418350881
 20
19.9015522361
 10
67.4479448637
 20
19.90696089
 10
67.454705681
 20
19.911668422
 10
67.46211754
 20
19.9154745118
 10
67.4700302002
 20
19.9182289188
 10
67.4783935817
 20
19.9198314829
 10
67.4873078445
 20
19.9203823643
 10
67.4873078445
 20
19.9203823643
 10
67.4970233893
 20
19.9198314829
 10
67.5057874118
 20
19.9181287586
 10
67.5136499919
 20
19.9153242714
 10
67.5206111297
 20
19.9114180214
 10
67.5266207451
 20
19.9065101688
 10
67.5317289182
 20
19.9007509541
 10
67.5358354887
 20
19.8940402169
 10
67.5389905368
 20
19.8864781176
 10
67.5389905368
 20
19.8864781176
 10
67.5448499118
 20
19.8944408579
 10
67.5511099278
 20
19.9013018355
 10
67.5577705849
 20
19.9071612105
 10
67.5648819631
 20
19.9119188227
 10
67.5724440624
 20
19.9156247522
 10
67.5804068028
 20
19.918278999
 10
67.5887701842
 20
19.9198314829
 10
67.5975842868
 20
19.9203823643
 10
67.5975842868
 20
19.9203823643
 10
67.6044452643
 20
19.9201319637
 10
67.6109056009
 20
19.9194308419
 10
67.6169152163
 20
19.918278999
 10
67.6225742708
 20
19.9166263547
 10
67.6277826041
 20
19.9145229893
 10
67.6325902964
 20
19.9119689028
 10
67.6369973477
 20
19.908914015
 10
67.6410037579
 20
19.905408406
 10
67.644559447
 20
19.9014019958
 10
67.647664415
 20
19.8968947842
 10
67.6502685817
 20
19.8918867714
 10
67.652371947
 20
19.8863779573
 10
67.6540245913
 20
19.8803683419
 10
67.6552265143
 20
19.8738579252
 10
67.6559276361
 20
19.8667966272
 10
67.6561780368
 20
19.8592846079
 10
67.6561780368
 20
19.8592846079
 10
67.6561780368
 20
19.7344849285
 10
67.6561780368
 20
19.7344849285
 10
67.6241267547
 20
19.7344849285
 10
67.6241267547
 20
19.7344849285
 10
67.6241267547
 20
19.8474656977
 10
67.6241267547
 20
19.8474656977
 10
67.6239264342
 20
19.8559292393
 10
67.6233254727
 20
19.8631407778
 10
67.6223739502
 20
19.8690502329
 10
67.6209717067
 20
19.8737076849
 10
67.6191187419
 20
19.8775137746
 10
67.6166147355
 20
19.8809693035
 10
67.6134596874
 20
19.8839741111
 10
67.6096535977
 20
19.8866283579
 10
67.6053967868
 20
19.8887818035
 10
67.6007393349
 20
19.8903342874
 10
67.5957814022
 20
19.8912357297
 10
67.5904228284
 20
19.8915362105
 10
67.5904228284
 20
19.8915362105
 10
67.5855149759
 20
19.89133589
 10
67.580857524
 20
19.8907349285
 10
67.5763503124
 20
19.889783406
 10
67.5720935015
 20
19.8883811624
 10
67.5680370111
 20
19.8866283579
 10
67.5642309214
 20
19.8844749124
 10
67.560575072
 20
19.8819208259
 10
67.5571696233
 20
19.8789660983
 10
67.5540646554
 20
19.8756107297
 10
67.5514104086
 20
19.8717545599
 10
67.5491568028
 20
19.8673975887
 10
67.5473038381
 20
19.8626399765
 10
67.5458515143
 20
19.8573314829
 10
67.5447998317
 20
19.8516223483
 10
67.5441988701
 20
19.8454124124
 10
67.5439985496
 20
19.8387016752
 10
67.5439985496
 20
19.8387016752
 10
67.5439985496
 20
19.7344849285
 10
67.5439985496
 20
19.7344849285
 10
67.5119472675
 20
19.7344849285
 10
67.5119472675
 20
19.7344849285
 10
67.5119472675
 20
19.8510213868
 10
67.5119472675
 20
19.8510213868
 10
67.5118471073
 20
19.8559292393
 10
67.5114464663
 20
19.860486531
 10
67.5108455047
 20
19.864793422
 10
67.5099941425
 20
19.8687497522
 10
67.5088923797
 20
19.8723555214
 10
67.5075402163
 20
19.8756608099
 10
67.5059877323
 20
19.8786656176
 10
67.5041347675
 20
19.8813699445
 10
67.5020314022
 20
19.8837737906
 10
67.499627556
 20
19.8858270759
 10
67.496873149
 20
19.8875798804
 10
67.4938182611
 20
19.888982124
 10
67.4904628925
 20
19.8900838868
 10
67.4868070432
 20
19.8908851688
 10
67.4828507131
 20
19.8913859701
 10
67.478543822
 20
19.8915362105
 10
67.478543822
 20
19.8915362105
 10
67.4719332451
 20
19.8911355695
 10
67.4655730688
 20
19.8898334861
 10
67.4594632932
 20
19.8877301208
 10
67.4536039182
 20
19.8847753932
 10
67.4482453445
 20
19.8810193836
 10
67.4437381329
 20
19.8764620919
 10
67.4399320432
 20
19.8711035182
 10
67.4369773156
 20
19.8649937426
 10
67.4357753925
 20
19.8615882938
 10
67.4347237099
 20
19.8577822041
 10
67.4338222675
 20
19.8536255535
 10
67.4331211458
 20
19.849168422
 10
67.4325201842
 20
19.8442605695
 10
67.4321195432
 20
19.8390522361
 10
67.4319192227
 20
19.8334933419
 10
67.4318190624
 20
19.8275338067
 10
67.4318190624
 20
19.8275338067
 10
67.4318190624
 20
19.7344849285
 10
67.4318190624
 20
19.7344849285
 10
67.3997677804
 20
19.7344849285
  0
LWPOLYLINE
  5
121
330
1F
100
AcDbEntity
  8
0
  6
Continuous
 62
     7
100
AcDbPolyline
 90
       28
 70
   128
 43
0.0
 10
68.7981247902
 20
22.4615336767
 10
68.7660940643
 20
22.4615336767
 10
68.7660940643
 20
22.4615336767
 10
68.7660940643
 20
22.6563453754
 10
68.7660940643
 20
22.6563453754
 10
68.7598841284
 20
22.651086962
 10
68.75272267
 20
22.6458285485
 10
68.7447098495
 20
22.6405200549
 10
68.7357455066
 20
22.6352616415
 10
68.7265808431
 20
22.6303537889
 10
68.7179169809
 20
22.6260468979
 10
68.7097038399
 20
22.6224411286
 10
68.7019915001
 20
22.6194864011
 10
68.7019915001
 20
22.6194864011
 10
68.7019915001
 20
22.6490336767
 10
68.7019915001
 20
22.6490336767
 10
68.7150123335
 20
22.655393853
 10
68.7271818046
 20
22.6623549908
 10
68.7385499937
 20
22.6699671703
 10
68.7490167405
 20
22.6782303915
 10
68.7583316444
 20
22.6867440132
 10
68.7661942245
 20
22.6951574748
 10
68.7726044809
 20
22.7034206959
 10
68.7775123335
 20
22.7115336767
 10
68.7775123335
 20
22.7115336767
 10
68.7981453463
 20
22.7115336767
 10
68.7981453463
 20
22.7115336767
 10
68.7981453463
 20
22.4615336767
  0
LWPOLYLINE
  5
122
330
1F
100
AcDbEntity
  8
0
  6
Continuous
 62
     7
100
AcDbPolyline
 90
        8
 70
   128
 43
0.0
 10
68.897485733
 20
22.4615336767
 10
68.8975043207
 20
22.4935849588
 10
68.8975043207
 20
22.4935849588
 10
68.9295556027
 20
22.4935849588
 10
68.9295556027
 20
22.4935849588
 10
68.9295556027
 20
22.4615336767
 10
68.9295556027
 20
22.4615336767
 10
68.8975043207
 20
22.4615336767
  0
LWPOLYLINE
  5
123
330
1F
100
AcDbEntity
  8
0
  6
Continuous
 62
     7
100
AcDbPolyline
 90
       28
 70
   128
 43
0.0
 10
69.0994262695
 20
22.4615336767
 10
69.0673761155
 20
22.4615336767
 10
69.0673761155
 20
22.4615336767
 10
69.0673761155
 20
22.6563453754
 10
69.0673761155
 20
22.6563453754
 10
69.0611661796
 20
22.651086962
 10
69.0540047213
 20
22.6458285485
 10
69.0459919008
 20
22.6405200549
 10
69.0370275578
 20
22.6352616415
 10
69.0278628944
 20
22.6303537889
 10
69.0191990322
 20
22.6260468979
 10
69.0109858912
 20
22.6224411286
 10
69.0032735514
 20
22.6194864011
 10
69.0032735514
 20
22.6194864011
 10
69.0032735514
 20
22.6490336767
 10
69.0032735514
 20
22.6490336767
 10
69.0162943848
 20
22.655393853
 10
69.0284638559
 20
22.6623549908
 10
69.039832045
 20
22.6699671703
 10
69.0502987918
 20
22.6782303915
 10
69.0596136957
 20
22.6867440132
 10
69.0674762758
 20
22.6951574748
 10
69.0738865322
 20
22.7034206959
 10
69.0787943848
 20
22.7115336767
 10
69.0787943848
 20
22.7115336767
 10
69.0994273976
 20
22.7115336767
 10
69.0994273976
 20
22.7115336767
 10
69.0994273976
 20
22.4615336767
  0
LWPOLYLINE
  5
124
330
1F
100
AcDbEntity
  8
0
  6
Continuous
 62
     7
100
AcDbPolyline
 90
       89
 70
   128
 43
0.0
 10
69.1827535629
 20
22.5848309523
 10
69.1829109713
 20
22.5955480998
 10
69.1833616925
 20
22.6058145261
 10
69.1841128944
 20
22.6155300709
 10
69.1851645771
 20
22.6246947344
 10
69.1864666604
 20
22.6334086767
 10
69.1881193046
 20
22.6415717376
 10
69.1900223495
 20
22.6492339972
 10
69.1922759553
 20
22.6563954556
 10
69.1947799617
 20
22.6631061927
 10
69.197634529
 20
22.6693662088
 10
69.2006894168
 20
22.6751755036
 10
69.2040948655
 20
22.6805841575
 10
69.2077507149
 20
22.68549201
 10
69.2117571251
 20
22.6900493017
 10
69.2159638559
 20
22.6941057921
 10
69.2205211476
 20
22.6977616415
 10
69.22537892
 20
22.7009667697
 10
69.2304870931
 20
22.7037712568
 10
69.2359458271
 20
22.706175103
 10
69.2417050418
 20
22.7080781479
 10
69.2477146572
 20
22.7095805517
 10
69.2540748335
 20
22.7106823145
 10
69.2607354905
 20
22.7113333562
 10
69.2676966284
 20
22.7115336767
 10
69.2676966284
 20
22.7115336767
 10
69.2779129745
 20
22.7110328754
 10
69.2875784393
 20
22.7095304716
 10
69.2966930226
 20
22.706976385
 10
69.3052567245
 20
22.7034707761
 10
69.3131193046
 20
22.6990136447
 10
69.3201305226
 20
22.6937051511
 10
69.3261902181
 20
22.687445135
 10
69.3313985514
 20
22.6803337568
 10
69.335905763
 20
22.6723710165
 10
69.3400123335
 20
22.6635569139
 10
69.3436181027
 20
22.6539415293
 10
69.3467731508
 20
22.6434747825
 10
69.3481253143
 20
22.637815728
 10
69.3493272373
 20
22.6316558722
 10
69.3503288399
 20
22.6250452953
 10
69.3511802021
 20
22.6179339171
 10
69.3518312437
 20
22.6103718177
 10
69.3522819649
 20
22.6023589972
 10
69.3525323655
 20
22.5938453754
 10
69.3526325258
 20
22.5848309523
 10
69.3526325258
 20
22.5848309523
 10
69.3524822854
 20
22.574163885
 10
69.3520315643
 20
22.563997619
 10
69.3513304425
 20
22.5543822344
 10
69.3502787598
 20
22.5452175709
 10
69.3489766764
 20
22.5365537088
 10
69.3473240322
 20
22.5283906479
 10
69.3454209873
 20
22.5207283882
 10
69.3432174617
 20
22.5135669299
 10
69.3407134553
 20
22.5069062729
 10
69.3379089681
 20
22.5006462568
 10
69.3348540803
 20
22.4947868818
 10
69.3314486316
 20
22.4894283081
 10
69.3277927822
 20
22.4844703754
 10
69.3238364521
 20
22.4799130838
 10
69.3195796412
 20
22.4758065132
 10
69.3150223495
 20
22.4721506639
 10
69.3101645771
 20
22.4688954556
 10
69.305056404
 20
22.4660909684
 10
69.29959767
 20
22.4637372023
 10
69.2938384553
 20
22.4617840773
 10
69.2877787598
 20
22.4602816735
 10
69.2813685034
 20
22.4591799107
 10
69.2747078463
 20
22.458528869
 10
69.2676966284
 20
22.4583285485
 10
69.2676966284
 20
22.4583285485
 10
69.2585319649
 20
22.4587291895
 10
69.2498681027
 20
22.4598309523
 10
69.2417050418
 20
22.4617339972
 10
69.2340928623
 20
22.4643381639
 10
69.226931404
 20
22.4677436126
 10
69.2202707469
 20
22.4719002632
 10
69.2141609713
 20
22.4767580357
 10
69.2085019168
 20
22.4824170902
 10
69.2085019168
 20
22.4824170902
 10
69.2024923014
 20
22.4911310325
 10
69.197233888
 20
22.5010468979
 10
69.1928268367
 20
22.5120645261
 10
69.1892210675
 20
22.5242840773
 10
69.1863665001
 20
22.5377055517
 10
69.184363295
 20
22.5522287889
 10
69.1831613719
 20
22.5679539491
 10
69.1827607309
 20
22.5848309523
  0
LWPOLYLINE
  5
125
330
1F
100
AcDbEntity
  8
0
  6
Continuous
 62
     7
100
AcDbPolyline
 90
       69
 70
   128
 43
0.0
 10
69.2147612572
 20
22.5849311126
 10
69.2150624136
 20
22.5705080357
 10
69.2157635354
 20
22.557336962
 10
69.2169654585
 20
22.5455180517
 10
69.2186181027
 20
22.5349511447
 10
69.2207715482
 20
22.5257364011
 10
69.2233757149
 20
22.5178237408
 10
69.2264806828
 20
22.5111630838
 10
69.2300363719
 20
22.5058545902
 10
69.2339426219
 20
22.501497619
 10
69.2380992726
 20
22.4976915293
 10
69.2425063239
 20
22.4944864011
 10
69.2471136957
 20
22.4918321543
 10
69.251921388
 20
22.489778869
 10
69.2569294008
 20
22.4883265453
 10
69.2621878143
 20
22.4874751831
 10
69.2676966284
 20
22.4871747023
 10
69.2676966284
 20
22.4871747023
 10
69.2732054425
 20
22.4874751831
 10
69.2784638559
 20
22.4883265453
 10
69.2834718687
 20
22.4898289491
 10
69.288279561
 20
22.4918822344
 10
69.2928869328
 20
22.4944864011
 10
69.297243904
 20
22.4976915293
 10
69.3014005546
 20
22.501497619
 10
69.3053068046
 20
22.5059046703
 10
69.3088624937
 20
22.511263244
 10
69.3119674617
 20
22.5178738209
 10
69.3146217085
 20
22.5258365613
 10
69.316775154
 20
22.5350513049
 10
69.3184277982
 20
22.5455681318
 10
69.3196297213
 20
22.5573870421
 10
69.3203308431
 20
22.5705080357
 10
69.3205812437
 20
22.5849311126
 10
69.3205812437
 20
22.5849311126
 10
69.3203308431
 20
22.5990537088
 10
69.3196297213
 20
22.6119743818
 10
69.3184778784
 20
22.6235929716
 10
69.3168753143
 20
22.6340096382
 10
69.3147719489
 20
22.6432243818
 10
69.3122178623
 20
22.6511370421
 10
69.3092130546
 20
22.6578477793
 10
69.3057074457
 20
22.6633065132
 10
69.3018512758
 20
22.6678638049
 10
69.2977447053
 20
22.6717700549
 10
69.2933877341
 20
22.6751254235
 10
69.2887302822
 20
22.6778297504
 10
69.2837723495
 20
22.6799831959
 10
69.2785640162
 20
22.6814855998
 10
69.2731052822
 20
22.6823870421
 10
69.2673460675
 20
22.6826875229
 10
69.2673460675
 20
22.6826875229
 10
69.2618873335
 20
22.6824371222
 10
69.2566790001
 20
22.6816358402
 10
69.2517210675
 20
22.6802836767
 10
69.2470135354
 20
22.678430712
 10
69.242556404
 20
22.6759767857
 10
69.2383997534
 20
22.6730721382
 10
69.2344434232
 20
22.6695665293
 10
69.2307875739
 20
22.665560119
 10
69.2307875739
 20
22.665560119
 10
69.2270315643
 20
22.6595004235
 10
69.2237763559
 20
22.6523389652
 10
69.221072029
 20
22.6439755838
 10
69.2188184232
 20
22.6345104395
 10
69.2170656187
 20
22.6238433722
 10
69.2158136155
 20
22.612024462
 10
69.2150624136
 20
22.5990537088
 10
69.214812013
 20
22.5849311126
  0
LWPOLYLINE
  5
126
330
1F
100
AcDbEntity
  8
0
  6
Continuous
 62
     7
100
AcDbPolyline
 90
      130
 70
   128
 43
0.0
 10
69.4918632507
 20
22.4615336767
 10
69.4919053623
 20
22.6442259844
 10
69.4919053623
 20
22.6442259844
 10
69.5239566444
 20
22.6442259844
 10
69.5239566444
 20
22.6442259844
 10
69.5239566444
 20
22.6157303915
 10
69.5239566444
 20
22.6157303915
 10
69.5286140963
 20
22.6225412889
 10
69.53397267
 20
22.6286009844
 10
69.5400824457
 20
22.6340096382
 10
69.546843263
 20
22.6387171703
 10
69.5542551219
 20
22.64252326
 10
69.5621677822
 20
22.6452776671
 10
69.5705311636
 20
22.6468802312
 10
69.5794454264
 20
22.6474311126
 10
69.5794454264
 20
22.6474311126
 10
69.5891609713
 20
22.6468802312
 10
69.5979249937
 20
22.6451775068
 10
69.6057875739
 20
22.6423730197
 10
69.6127487117
 20
22.6384667697
 10
69.6187583271
 20
22.6335589171
 10
69.6238665001
 20
22.6277997023
 10
69.6279730707
 20
22.6210889652
 10
69.6311281187
 20
22.6135268658
 10
69.6311281187
 20
22.6135268658
 10
69.6369874937
 20
22.6214896062
 10
69.6432475098
 20
22.6283505838
 10
69.6499081668
 20
22.6342099588
 10
69.657019545
 20
22.6389675709
 10
69.6645816444
 20
22.6426735004
 10
69.6725443848
 20
22.6453277472
 10
69.6809077662
 20
22.6468802312
 10
69.6897218687
 20
22.6474311126
 10
69.6897218687
 20
22.6474311126
 10
69.6965828463
 20
22.647180712
 10
69.7030431828
 20
22.6464795902
 10
69.7090527982
 20
22.6453277472
 10
69.7147118527
 20
22.643675103
 10
69.719920186
 20
22.6415717376
 10
69.7247278784
 20
22.6390176511
 10
69.7291349296
 20
22.6359627632
 10
69.7331413399
 20
22.6324571543
 10
69.736697029
 20
22.628450744
 10
69.7398019969
 20
22.6239435325
 10
69.7424061636
 20
22.6189355197
 10
69.744509529
 20
22.6134267056
 10
69.7461621732
 20
22.6074170902
 10
69.7473640963
 20
22.6009066735
 10
69.7480652181
 20
22.5938453754
 10
69.7483156187
 20
22.5863333562
 10
69.7483156187
 20
22.5863333562
 10
69.7483156187
 20
22.4615336767
 10
69.7483156187
 20
22.4615336767
 10
69.7162643367
 20
22.4615336767
 10
69.7162643367
 20
22.4615336767
 10
69.7162643367
 20
22.5745144459
 10
69.7162643367
 20
22.5745144459
 10
69.7160640162
 20
22.5829779876
 10
69.7154630546
 20
22.5901895261
 10
69.7145115322
 20
22.5960989812
 10
69.7131092886
 20
22.6007564331
 10
69.7112563239
 20
22.6045625229
 10
69.7087523175
 20
22.6080180517
 10
69.7055972694
 20
22.6110228594
 10
69.7017911796
 20
22.6136771062
 10
69.6975343687
 20
22.6158305517
 10
69.6928769168
 20
22.6173830357
 10
69.6879189841
 20
22.618284478
 10
69.6825604104
 20
22.6185849588
 10
69.6825604104
 20
22.6185849588
 10
69.6776525578
 20
22.6183846382
 10
69.6729951059
 20
22.6177836767
 10
69.6684878944
 20
22.6168321543
 10
69.6642310835
 20
22.6154299107
 10
69.6601745931
 20
22.6136771062
 10
69.6563685034
 20
22.6115236607
 10
69.652712654
 20
22.6089695741
 10
69.6493072053
 20
22.6060148466
 10
69.6462022373
 20
22.602659478
 10
69.6435479905
 20
22.5988033081
 10
69.6412943848
 20
22.594446337
 10
69.63944142
 20
22.5896887248
 10
69.6379890963
 20
22.5843802312
 10
69.6369374136
 20
22.5786710966
 10
69.6363364521
 20
22.5724611607
 10
69.6361361316
 20
22.5657504235
 10
69.6361361316
 20
22.5657504235
 10
69.6361361316
 20
22.4615336767
 10
69.6361361316
 20
22.4615336767
 10
69.6040848495
 20
22.4615336767
 10
69.6040848495
 20
22.4615336767
 10
69.6040848495
 20
22.578070135
 10
69.6040848495
 20
22.578070135
 10
69.6039846893
 20
22.5829779876
 10
69.6035840482
 20
22.5875352793
 10
69.6029830867
 20
22.5918421703
 10
69.6021317245
 20
22.5957985004
 10
69.6010299617
 20
22.5994042697
 10
69.5996777982
 20
22.6027095581
 10
69.5981253143
 20
22.6057143658
 10
69.5962723495
 20
22.6084186927
 10
69.5941689841
 20
22.6108225389
 10
69.591765138
 20
22.6128758241
 10
69.5890107309
 20
22.6146286286
 10
69.5859558431
 20
22.6160308722
 10
69.5826004745
 20
22.617132635
 10
69.5789446251
 20
22.6179339171
 10
69.574988295
 20
22.6184347184
 10
69.570681404
 20
22.6185849588
 10
69.570681404
 20
22.6185849588
 10
69.5640708271
 20
22.6181843177
 10
69.5577106508
 20
22.6168822344
 10
69.5516008751
 20
22.614778869
 10
69.5457415001
 20
22.6118241415
 10
69.5403829264
 20
22.6080681318
 10
69.5358757149
 20
22.6035108402
 10
69.5320696251
 20
22.5981522665
 10
69.5291148976
 20
22.5920424908
 10
69.5279129745
 20
22.5886370421
 10
69.5268612918
 20
22.5848309523
 10
69.5259598495
 20
22.5806743017
 10
69.5252587277
 20
22.5762171703
 10
69.5246577662
 20
22.5713093177
 10
69.5242571251
 20
22.5661009844
 10
69.5240568046
 20
22.5605420902
 10
69.5239566444
 20
22.5545825549
 10
69.5239566444
 20
22.5545825549
 10
69.5239566444
 20
22.4615336767
 10
69.5239566444
 20
22.4615336767
 10
69.4919053623
 20
22.4615336767
  0
LWPOLYLINE
  5
127
330
1F
100
AcDbEntity
  8
0
  6
Continuous
 62
     7
100
AcDbPolyline
 90
       89
 70
   128
 43
0.0
 10
68.6795115471
 20
24.9748309523
 10
68.6797058431
 20
24.9855480998
 10
68.6801565643
 20
24.9958145261
 10
68.6809077662
 20
25.0055300709
 10
68.6819594489
 20
25.0146947344
 10
68.6832615322
 20
25.0234086767
 10
68.6849141764
 20
25.0315717376
 10
68.6868172213
 20
25.0392339972
 10
68.6890708271
 20
25.0463954556
 10
68.6915748335
 20
25.0531061927
 10
68.6944294008
 20
25.0593662088
 10
68.6974842886
 20
25.0651755036
 10
68.7008897373
 20
25.0705841575
 10
68.7045455867
 20
25.07549201
 10
68.7085519969
 20
25.0800493017
 10
68.7127587277
 20
25.0841057921
 10
68.7173160194
 20
25.0877616415
 10
68.7221737918
 20
25.0909667697
 10
68.7272819649
 20
25.0937712568
 10
68.7327406989
 20
25.096175103
 10
68.7384999136
 20
25.0980781479
 10
68.744509529
 20
25.0995805517
 10
68.7508697053
 20
25.1006823145
 10
68.7575303623
 20
25.1013333562
 10
68.7644915001
 20
25.1015336767
 10
68.7644915001
 20
25.1015336767
 10
68.7747078463
 20
25.1010328754
 10
68.784373311
 20
25.0995304716
 10
68.7934878944
 20
25.096976385
 10
68.8020515963
 20
25.0934707761
 10
68.8099141764
 20
25.0890136447
 10
68.8169253944
 20
25.0837051511
 10
68.8229850899
 20
25.077445135
 10
68.8281934232
 20
25.0703337568
 10
68.8327006348
 20
25.0623710165
 10
68.8368072053
 20
25.0535569139
 10
68.8404129745
 20
25.0439415293
 10
68.8435680226
 20
25.0334747825
 10
68.844920186
 20
25.027815728
 10
68.8461221091
 20
25.0216558722
 10
68.8471237117
 20
25.0150452953
 10
68.8479750739
 20
25.0079339171
 10
68.8486261155
 20
25.0003718177
 10
68.8490768367
 20
24.9923589972
 10
68.8493272373
 20
24.9838453754
 10
68.8494273976
 20
24.9748309523
 10
68.8494273976
 20
24.9748309523
 10
68.8492771572
 20
24.964163885
 10
68.848826436
 20
24.953997619
 10
68.8481253143
 20
24.9443822344
 10
68.8470736316
 20
24.9352175709
 10
68.8457715482
 20
24.9265537088
 10
68.844118904
 20
24.9183906479
 10
68.8422158591
 20
24.9107283882
 10
68.8400123335
 20
24.9035669299
 10
68.8375083271
 20
24.8969062729
 10
68.8347038399
 20
24.8906462568
 10
68.8316489521
 20
24.8847868818
 10
68.8282435034
 20
24.8794283081
 10
68.824587654
 20
24.8744703754
 10
68.8206313239
 20
24.8699130838
 10
68.816374513
 20
24.8658065132
 10
68.8118172213
 20
24.8621506639
 10
68.8069594489
 20
24.8588954556
 10
68.8018512758
 20
24.8560909684
 10
68.7963925418
 20
24.8537372023
 10
68.7906333271
 20
24.8517840773
 10
68.7845736316
 20
24.8502816735
 10
68.7781633751
 20
24.8491799107
 10
68.7715027181
 20
24.848528869
 10
68.7644915001
 20
24.8483285485
 10
68.7644915001
 20
24.8483285485
 10
68.7553268367
 20
24.8487291895
 10
68.7466629745
 20
24.8498309523
 10
68.7384999136
 20
24.8517339972
 10
68.7308877341
 20
24.8543381639
 10
68.7237262758
 20
24.8577436126
 10
68.7170656187
 20
24.8619002632
 10
68.7109558431
 20
24.8667580357
 10
68.7052967886
 20
24.8724170902
 10
68.7052967886
 20
24.8724170902
 10
68.6992871732
 20
24.8811310325
 10
68.6940287598
 20
24.8910468979
 10
68.6896217085
 20
24.9020645261
 10
68.6860159393
 20
24.9142840773
 10
68.6831613719
 20
24.9277055517
 10
68.6811581668
 20
24.9422287889
 10
68.6799562437
 20
24.9579539491
 10
68.6795556027
 20
24.9748309523
  0
LWPOLYLINE
  5
128
330
1F
100
AcDbEntity
  8
0
  6
Continuous
 62
     7
100
AcDbPolyline
 90
       69
 70
   128
 43
0.0
 10
68.711578846
 20
24.9749311126
 10
68.7118572854
 20
24.9605080357
 10
68.7125584072
 20
24.947336962
 10
68.7137603303
 20
24.9355180517
 10
68.7154129745
 20
24.9249511447
 10
68.71756642
 20
24.9157364011
 10
68.7201705867
 20
24.9078237408
 10
68.7232755546
 20
24.9011630838
 10
68.7268312437
 20
24.8958545902
 10
68.7307374937
 20
24.891497619
 10
68.7348941444
 20
24.8876915293
 10
68.7393011957
 20
24.8844864011
 10
68.7439085675
 20
24.8818321543
 10
68.7487162598
 20
24.879778869
 10
68.7537242726
 20
24.8783265453
 10
68.758982686
 20
24.8774751831
 10
68.7644915001
 20
24.8771747023
 10
68.7644915001
 20
24.8771747023
 10
68.7700003143
 20
24.8774751831
 10
68.7752587277
 20
24.8783265453
 10
68.7802667405
 20
24.8798289491
 10
68.7850744328
 20
24.8818822344
 10
68.7896818046
 20
24.8844864011
 10
68.7940387758
 20
24.8876915293
 10
68.7981954264
 20
24.891497619
 10
68.8021016764
 20
24.8959046703
 10
68.8056573655
 20
24.901263244
 10
68.8087623335
 20
24.9078738209
 10
68.8114165803
 20
24.9158365613
 10
68.8135700258
 20
24.9250513049
 10
68.81522267
 20
24.9355681318
 10
68.8164245931
 20
24.9473870421
 10
68.8171257149
 20
24.9605080357
 10
68.8173761155
 20
24.9749311126
 10
68.8173761155
 20
24.9749311126
 10
68.8171257149
 20
24.9890537088
 10
68.8164245931
 20
25.0019743818
 10
68.8152727501
 20
25.0135929716
 10
68.813670186
 20
25.0240096382
 10
68.8115668207
 20
25.0332243818
 10
68.8090127341
 20
25.0411370421
 10
68.8060079264
 20
25.0478477793
 10
68.8025023175
 20
25.0533065132
 10
68.7986461476
 20
25.0578638049
 10
68.7945395771
 20
25.0617700549
 10
68.7901826059
 20
25.0651254235
 10
68.785525154
 20
25.0678297504
 10
68.7805672213
 20
25.0699831959
 10
68.775358888
 20
25.0714855998
 10
68.769900154
 20
25.0723870421
 10
68.7641409393
 20
25.0726875229
 10
68.7641409393
 20
25.0726875229
 10
68.7586822053
 20
25.0724371222
 10
68.7534738719
 20
25.0716358402
 10
68.7485159393
 20
25.0702836767
 10
68.7438084072
 20
25.068430712
 10
68.7393512758
 20
25.0659767857
 10
68.7351946251
 20
25.0630721382
 10
68.731238295
 20
25.0595665293
 10
68.7275824457
 20
25.055560119
 10
68.7275824457
 20
25.055560119
 10
68.723826436
 20
25.0495004235
 10
68.7205712277
 20
25.0423389652
 10
68.7178669008
 20
25.0339755838
 10
68.715613295
 20
25.0245104395
 10
68.7138604905
 20
25.0138433722
 10
68.7126084873
 20
25.002024462
 10
68.7118572854
 20
24.9890537088
 10
68.7116068848
 20
24.9749311126
  0
LWPOLYLINE
  5
129
330
1F
100
AcDbEntity
  8
0
  6
Continuous
 62
     7
100
AcDbPolyline
 90
        8
 70
   128
 43
0.0
 10
68.897485733
 20
24.8515336767
 10
68.8975043207
 20
24.8835849588
 10
68.8975043207
 20
24.8835849588
 10
68.9295556027
 20
24.8835849588
 10
68.9295556027
 20
24.8835849588
 10
68.9295556027
 20
24.8515336767
 10
68.9295556027
 20
24.8515336767
 10
68.8975043207
 20
24.8515336767
  0
LWPOLYLINE
  5
12A
330
1F
100
AcDbEntity
  8
0
  6
Continuous
 62
     7
100
AcDbPolyline
 90
      124
 70
   128
 43
0.0
 10
69.0289735794
 20
24.9886530677
 10
69.0242571251
 20
24.9904559523
 10
69.0198500739
 20
24.9924591575
 10
69.0157435034
 20
24.994612603
 10
69.0119374136
 20
24.996966369
 10
69.0084318046
 20
24.9995204556
 10
69.0052767566
 20
25.0022247825
 10
69.0024221893
 20
25.0051294299
 10
68.9999181828
 20
25.0081843177
 10
68.9957615322
 20
25.0148449748
 10
68.9928068046
 20
25.0221065934
 10
68.9910540001
 20
25.0299691735
 10
68.9904530386
 20
25.0384827953
 10
68.9904530386
 20
25.0384827953
 10
68.9907535194
 20
25.0450432921
 10
68.9917551219
 20
25.0513033081
 10
68.9933076059
 20
25.0573129235
 10
68.9955612117
 20
25.0630721382
 10
68.998415779
 20
25.0685308722
 10
69.0019714681
 20
25.0737392056
 10
69.0060780386
 20
25.0786971382
 10
69.0108857309
 20
25.0833545902
 10
69.0161942245
 20
25.0876114011
 10
69.0219534393
 20
25.0913173306
 10
69.0281633751
 20
25.0944222985
 10
69.0347238719
 20
25.096976385
 10
69.0417350899
 20
25.0989795902
 10
69.049197029
 20
25.1003818338
 10
69.0570596091
 20
25.1012331959
 10
69.0653228303
 20
25.1015336767
 10
69.0653228303
 20
25.1015336767
 10
69.0736361316
 20
25.1012331959
 10
69.0815487918
 20
25.1003818338
 10
69.089060811
 20
25.09892951
 10
69.0961221091
 20
25.0968762248
 10
69.1027827662
 20
25.0942720581
 10
69.1090427822
 20
25.0910669299
 10
69.1148520771
 20
25.0873109203
 10
69.1202607309
 20
25.0829539491
 10
69.1251685835
 20
25.078196337
 10
69.1293753143
 20
25.073138244
 10
69.1329810835
 20
25.0678798306
 10
69.1358857309
 20
25.0623710165
 10
69.1381894168
 20
25.0565617216
 10
69.1397919809
 20
25.0505020261
 10
69.1407935835
 20
25.04424201
 10
69.1410940643
 20
25.0376815132
 10
69.1410940643
 20
25.0376815132
 10
69.1404931027
 20
25.0294683722
 10
69.1387402982
 20
25.0217560325
 10
69.1358356508
 20
25.0146446543
 10
69.1317290803
 20
25.0080841575
 10
69.1264706668
 20
25.0021747023
 10
69.1200103303
 20
24.996966369
 10
69.1122979905
 20
24.9924591575
 10
69.1034338078
 20
24.9886530677
 10
69.1034338078
 20
24.9886530677
 10
69.1090427822
 20
24.9866498626
 10
69.1143011957
 20
24.9842960966
 10
69.1192090482
 20
24.9816919299
 10
69.12381642
 20
24.9788373626
 10
69.1280231508
 20
24.9756322344
 10
69.1319294008
 20
24.9721767056
 10
69.1354350098
 20
24.9684206959
 10
69.138640138
 20
24.9643642056
 10
69.1414446251
 20
24.9600573145
 10
69.1438985514
 20
24.955550103
 10
69.1460019168
 20
24.9508425709
 10
69.1477046412
 20
24.9459847985
 10
69.1490067245
 20
24.9408265453
 10
69.1499582469
 20
24.9355180517
 10
69.1505091284
 20
24.9300092376
 10
69.1507094489
 20
24.924300103
 10
69.1507094489
 20
24.924300103
 10
69.150358888
 20
24.9164375229
 10
69.1492571251
 20
24.9088754235
 10
69.1474041604
 20
24.9016138049
 10
69.1448500739
 20
24.8947027472
 10
69.1415948655
 20
24.8880921703
 10
69.1375383751
 20
24.8818321543
 10
69.132780763
 20
24.875872619
 10
69.127322029
 20
24.8702135645
 10
69.1212623335
 20
24.8651053915
 10
69.1147018367
 20
24.86064826
 10
69.1076906187
 20
24.8568922504
 10
69.1002286796
 20
24.8537872825
 10
69.0923160194
 20
24.8513834363
 10
69.083952638
 20
24.849680712
 10
69.0750884553
 20
24.8486791094
 10
69.0657735514
 20
24.8483285485
 10
69.0657735514
 20
24.8483285485
 10
69.0564586476
 20
24.8486791094
 10
69.0475944649
 20
24.849680712
 10
69.0392310835
 20
24.8514335165
 10
69.0313184232
 20
24.8538373626
 10
69.0238564841
 20
24.8568922504
 10
69.0168452662
 20
24.8606983402
 10
69.0102847694
 20
24.8651554716
 10
69.0042250739
 20
24.8703137248
 10
68.9987663399
 20
24.8759727793
 10
68.9940087277
 20
24.8819823947
 10
68.9899522373
 20
24.8883425709
 10
68.986697029
 20
24.895003228
 10
68.9841429425
 20
24.9020645261
 10
68.9822899777
 20
24.9094263049
 10
68.9811882149
 20
24.9170885645
 10
68.980837654
 20
24.9251514652
 10
68.980837654
 20
24.9251514652
 10
68.9810379745
 20
24.9311610806
 10
68.981638936
 20
24.9369202953
 10
68.9825904585
 20
24.9423790293
 10
68.9839927021
 20
24.9476374427
 10
68.9857455066
 20
24.9526454556
 10
68.9878989521
 20
24.9574030677
 10
68.9904029585
 20
24.9618601991
 10
68.993357686
 20
24.96611701
 10
68.9966629745
 20
24.9700733402
 10
69.0002687437
 20
24.9737291895
 10
69.0042250739
 20
24.977034478
 10
69.0085319649
 20
24.9800392857
 10
69.0131393367
 20
24.9826434523
 10
69.0180972694
 20
24.9849972184
 10
69.023405763
 20
24.9870004235
 10
69.0290147373
 20
24.9886530677
  0
LWPOLYLINE
  5
12B
330
1F
100
AcDbEntity
  8
0
  6
Continuous
 62
     7
100
AcDbPolyline
 90
       68
 70
   128
 43
0.0
 10
69.0224766731
 20
25.0383325549
 10
69.0227046412
 20
25.0344263049
 10
69.0232054425
 20
25.0307203754
 10
69.0241068848
 20
25.0272147665
 10
69.025358888
 20
25.0238593979
 10
69.0269113719
 20
25.0207043498
 10
69.0288644969
 20
25.0176995421
 10
69.0311681828
 20
25.0148950549
 10
69.0338224296
 20
25.0122908882
 10
69.0368272373
 20
25.0099371222
 10
69.0400824457
 20
25.007883837
 10
69.0436882149
 20
25.0061310325
 10
69.0475443848
 20
25.0047287889
 10
69.0517511155
 20
25.0035769459
 10
69.0562583271
 20
25.002825744
 10
69.0610159393
 20
25.0023249427
 10
69.0661241123
 20
25.0021747023
 10
69.0661241123
 20
25.0021747023
 10
69.071082045
 20
25.0023249427
 10
69.0757895771
 20
25.002825744
 10
69.0801465482
 20
25.0035769459
 10
69.0842531187
 20
25.0046787088
 10
69.0880592085
 20
25.0060809523
 10
69.0916148976
 20
25.0078337568
 10
69.0948200258
 20
25.009836962
 10
69.0977747534
 20
25.012190728
 10
69.1004290001
 20
25.0147948947
 10
69.1026826059
 20
25.0174992216
 10
69.1046357309
 20
25.0203537889
 10
69.106238295
 20
25.0234086767
 10
69.1074402181
 20
25.0265136447
 10
69.1083416604
 20
25.0298189331
 10
69.1088424617
 20
25.033274462
 10
69.1090427822
 20
25.0368301511
 10
69.1090427822
 20
25.0368301511
 10
69.1088424617
 20
25.0405360806
 10
69.1083416604
 20
25.0440917697
 10
69.107390138
 20
25.0475472985
 10
69.1061381348
 20
25.0508025068
 10
69.1044854905
 20
25.0539074748
 10
69.1025323655
 20
25.0568622023
 10
69.1001285194
 20
25.0596666895
 10
69.0974241925
 20
25.0623209363
 10
69.0944193848
 20
25.0647748626
 10
69.0911140963
 20
25.066878228
 10
69.0875584072
 20
25.0686310325
 10
69.0837523175
 20
25.0700833562
 10
69.0796457469
 20
25.0712351991
 10
69.0752887758
 20
25.0720364812
 10
69.070681404
 20
25.0725372825
 10
69.0657735514
 20
25.0726875229
 10
69.0657735514
 20
25.0726875229
 10
69.0608656989
 20
25.0725372825
 10
69.0562082469
 20
25.0720364812
 10
69.0518011957
 20
25.0712852793
 10
69.0477447053
 20
25.0701835165
 10
69.0438885354
 20
25.0687311927
 10
69.0403328463
 20
25.0669783882
 10
69.0370275578
 20
25.064925103
 10
69.0340227501
 20
25.062571337
 10
69.0313184232
 20
25.0599671703
 10
69.0289646572
 20
25.0572628434
 10
69.0270115322
 20
25.0544082761
 10
69.0254089681
 20
25.0514535485
 10
69.0241068848
 20
25.0483485806
 10
69.0232054425
 20
25.0451434523
 10
69.0227046412
 20
25.0417880838
 10
69.0225043207
 20
25.0383325549
  0
LWPOLYLINE
  5
12C
330
1F
100
AcDbEntity
  8
0
  6
Continuous
 62
     7
100
AcDbPolyline
 90
       64
 70
   128
 43
0.0
 10
69.0128803253
 20
24.9257524267
 10
69.0132394969
 20
24.9195925709
 10
69.0142911796
 20
24.9134827953
 10
69.0160940643
 20
24.90752326
 10
69.0185479905
 20
24.9016138049
 10
69.021853279
 20
24.8961049908
 10
69.0262102501
 20
24.8912472184
 10
69.0314686636
 20
24.8870905677
 10
69.0377787598
 20
24.8835348786
 10
69.0446397373
 20
24.8807303915
 10
69.0516509553
 20
24.8787772665
 10
69.0587623335
 20
24.8775753434
 10
69.0660239521
 20
24.8771747023
 10
69.0660239521
 20
24.8771747023
 10
69.0719834873
 20
24.8773750229
 10
69.0776425418
 20
24.8780260645
 10
69.0829510354
 20
24.8790777472
 10
69.0879089681
 20
24.8805300709
 10
69.09256642
 20
24.8824331158
 10
69.0969233912
 20
24.8847368017
 10
69.1009298014
 20
24.8874411286
 10
69.1045856508
 20
24.8905961767
 10
69.1078909393
 20
24.8941017857
 10
69.1107455066
 20
24.8978077152
 10
69.1131493527
 20
24.9017139652
 10
69.1151525578
 20
24.9058706158
 10
69.1166549617
 20
24.9102776671
 10
69.1177567245
 20
24.9148850389
 10
69.1184578463
 20
24.9196927312
 10
69.1186581668
 20
24.9247508241
 10
69.1186581668
 20
24.9247508241
 10
69.1184077662
 20
24.9299090773
 10
69.1177567245
 20
24.9348169299
 10
69.1166048816
 20
24.939524462
 10
69.1150523976
 20
24.9439815934
 10
69.1129991123
 20
24.9482384043
 10
69.1104951059
 20
24.9522448145
 10
69.1075403784
 20
24.9560008241
 10
69.1041349296
 20
24.9595565132
 10
69.1003288399
 20
24.9627616415
 10
69.0962222694
 20
24.9655661286
 10
69.0918152181
 20
24.9679699748
 10
69.087107686
 20
24.9698730197
 10
69.0820495931
 20
24.9713754235
 10
69.0766409393
 20
24.9724771863
 10
69.0709818848
 20
24.973128228
 10
69.0649722694
 20
24.9733285485
 10
69.0649722694
 20
24.9733285485
 10
69.0591128944
 20
24.973128228
 10
69.0535540001
 20
24.9724771863
 10
69.0483456668
 20
24.9714255036
 10
69.0433877341
 20
24.9699230998
 10
69.0387803623
 20
24.9680200549
 10
69.0345235514
 20
24.9656662889
 10
69.0305171412
 20
24.9629118818
 10
69.0268612918
 20
24.9597067536
 10
69.0236060835
 20
24.9562011447
 10
69.0207515162
 20
24.9524952152
 10
69.01834767
 20
24.9485889652
 10
69.016394545
 20
24.9444323145
 10
69.014842061
 20
24.9400753434
 10
69.0137402982
 20
24.9355180517
 10
69.0130892566
 20
24.9307604395
 10
69.012888936
 20
24.9257524267
  0
LWPOLYLINE
  5
12D
330
1F
100
AcDbEntity
  8
0
  6
Continuous
 62
     7
100
AcDbPolyline
 90
       22
 70
   128
 43
0.0
 10
69.2884922028
 20
24.8515336767
 10
69.2885299617
 20
24.9124311126
 10
69.2885299617
 20
24.9124311126
 10
69.1699402181
 20
24.9124311126
 10
69.1699402181
 20
24.9124311126
 10
69.1699402181
 20
24.9444823947
 10
69.1699402181
 20
24.9444823947
 10
69.2949402181
 20
25.0983285485
 10
69.2949402181
 20
25.0983285485
 10
69.3205812437
 20
25.0983285485
 10
69.3205812437
 20
25.0983285485
 10
69.3205812437
 20
24.9444823947
 10
69.3205812437
 20
24.9444823947
 10
69.3526325258
 20
24.9444823947
 10
69.3526325258
 20
24.9444823947
 10
69.3526325258
 20
24.9124311126
 10
69.3526325258
 20
24.9124311126
 10
69.3205812437
 20
24.9124311126
 10
69.3205812437
 20
24.9124311126
 10
69.3205812437
 20
24.8515336767
 10
69.3205812437
 20
24.8515336767
 10
69.2885299617
 20
24.8515336767
  0
LWPOLYLINE
  5
12E
330
1F
100
AcDbEntity
  8
0
  6
Continuous
 62
     7
100
AcDbPolyline
 90
        6
 70
   128
 43
0.0
 10
69.2884922028
 20
24.9444823947
 10
69.2885299617
 20
25.0403858402
 10
69.2885299617
 20
25.0403858402
 10
69.2105552021
 20
24.9444823947
 10
69.2105552021
 20
24.9444823947
 10
69.2885299617
 20
24.9444823947
  0
LWPOLYLINE
  5
12F
330
1F
100
AcDbEntity
  8
0
  6
Continuous
 62
     7
100
AcDbPolyline
 90
      130
 70
   128
 43
0.0
 10
69.4918632507
 20
24.8515336767
 10
69.4919053623
 20
25.0342259844
 10
69.4919053623
 20
25.0342259844
 10
69.5239566444
 20
25.0342259844
 10
69.5239566444
 20
25.0342259844
 10
69.5239566444
 20
25.0057303915
 10
69.5239566444
 20
25.0057303915
 10
69.5286140963
 20
25.0125412889
 10
69.53397267
 20
25.0186009844
 10
69.5400824457
 20
25.0240096382
 10
69.546843263
 20
25.0287171703
 10
69.5542551219
 20
25.03252326
 10
69.5621677822
 20
25.0352776671
 10
69.5705311636
 20
25.0368802312
 10
69.5794454264
 20
25.0374311126
 10
69.5794454264
 20
25.0374311126
 10
69.5891609713
 20
25.0368802312
 10
69.5979249937
 20
25.0351775068
 10
69.6057875739
 20
25.0323730197
 10
69.6127487117
 20
25.0284667697
 10
69.6187583271
 20
25.0235589171
 10
69.6238665001
 20
25.0177997023
 10
69.6279730707
 20
25.0110889652
 10
69.6311281187
 20
25.0035268658
 10
69.6311281187
 20
25.0035268658
 10
69.6369874937
 20
25.0114896062
 10
69.6432475098
 20
25.0183505838
 10
69.6499081668
 20
25.0242099588
 10
69.657019545
 20
25.0289675709
 10
69.6645816444
 20
25.0326735004
 10
69.6725443848
 20
25.0353277472
 10
69.6809077662
 20
25.0368802312
 10
69.6897218687
 20
25.0374311126
 10
69.6897218687
 20
25.0374311126
 10
69.6965828463
 20
25.037180712
 10
69.7030431828
 20
25.0364795902
 10
69.7090527982
 20
25.0353277472
 10
69.7147118527
 20
25.033675103
 10
69.719920186
 20
25.0315717376
 10
69.7247278784
 20
25.0290176511
 10
69.7291349296
 20
25.0259627632
 10
69.7331413399
 20
25.0224571543
 10
69.736697029
 20
25.018450744
 10
69.7398019969
 20
25.0139435325
 10
69.7424061636
 20
25.0089355197
 10
69.744509529
 20
25.0034267056
 10
69.7461621732
 20
24.9974170902
 10
69.7473640963
 20
24.9909066735
 10
69.7480652181
 20
24.9838453754
 10
69.7483156187
 20
24.9763333562
 10
69.7483156187
 20
24.9763333562
 10
69.7483156187
 20
24.8515336767
 10
69.7483156187
 20
24.8515336767
 10
69.7162643367
 20
24.8515336767
 10
69.7162643367
 20
24.8515336767
 10
69.7162643367
 20
24.9645144459
 10
69.7162643367
 20
24.9645144459
 10
69.7160640162
 20
24.9729779876
 10
69.7154630546
 20
24.9801895261
 10
69.7145115322
 20
24.9860989812
 10
69.7131092886
 20
24.9907564331
 10
69.7112563239
 20
24.9945625229
 10
69.7087523175
 20
24.9980180517
 10
69.7055972694
 20
25.0010228594
 10
69.7017911796
 20
25.0036771062
 10
69.6975343687
 20
25.0058305517
 10
69.6928769168
 20
25.0073830357
 10
69.6879189841
 20
25.008284478
 10
69.6825604104
 20
25.0085849588
 10
69.6825604104
 20
25.0085849588
 10
69.6776525578
 20
25.0083846382
 10
69.6729951059
 20
25.0077836767
 10
69.6684878944
 20
25.0068321543
 10
69.6642310835
 20
25.0054299107
 10
69.6601745931
 20
25.0036771062
 10
69.6563685034
 20
25.0015236607
 10
69.652712654
 20
24.9989695741
 10
69.6493072053
 20
24.9960148466
 10
69.6462022373
 20
24.992659478
 10
69.6435479905
 20
24.9888033081
 10
69.6412943848
 20
24.984446337
 10
69.63944142
 20
24.9796887248
 10
69.6379890963
 20
24.9743802312
 10
69.6369374136
 20
24.9686710966
 10
69.6363364521
 20
24.9624611607
 10
69.6361361316
 20
24.9557504235
 10
69.6361361316
 20
24.9557504235
 10
69.6361361316
 20
24.8515336767
 10
69.6361361316
 20
24.8515336767
 10
69.6040848495
 20
24.8515336767
 10
69.6040848495
 20
24.8515336767
 10
69.6040848495
 20
24.968070135
 10
69.6040848495
 20
24.968070135
 10
69.6039846893
 20
24.9729779876
 10
69.6035840482
 20
24.9775352793
 10
69.6029830867
 20
24.9818421703
 10
69.6021317245
 20
24.9857985004
 10
69.6010299617
 20
24.9894042697
 10
69.5996777982
 20
24.9927095581
 10
69.5981253143
 20
24.9957143658
 10
69.5962723495
 20
24.9984186927
 10
69.5941689841
 20
25.0008225389
 10
69.591765138
 20
25.0028758241
 10
69.5890107309
 20
25.0046286286
 10
69.5859558431
 20
25.0060308722
 10
69.5826004745
 20
25.007132635
 10
69.5789446251
 20
25.0079339171
 10
69.574988295
 20
25.0084347184
 10
69.570681404
 20
25.0085849588
 10
69.570681404
 20
25.0085849588
 10
69.5640708271
 20
25.0081843177
 10
69.5577106508
 20
25.0068822344
 10
69.5516008751
 20
25.004778869
 10
69.5457415001
 20
25.0018241415
 10
69.5403829264
 20
24.9980681318
 10
69.5358757149
 20
24.9935108402
 10
69.5320696251
 20
24.9881522665
 10
69.5291148976
 20
24.9820424908
 10
69.5279129745
 20
24.9786370421
 10
69.5268612918
 20
24.9748309523
 10
69.5259598495
 20
24.9706743017
 10
69.5252587277
 20
24.9662171703
 10
69.5246577662
 20
24.9613093177
 10
69.5242571251
 20
24.9561009844
 10
69.5240568046
 20
24.9505420902
 10
69.5239566444
 20
24.9445825549
 10
69.5239566444
 20
24.9445825549
 10
69.5239566444
 20
24.8515336767
 10
69.5239566444
 20
24.8515336767
 10
69.4919053623
 20
24.8515336767
  0
LWPOLYLINE
  5
130
330
1F
100
AcDbEntity
  8
0
  6
Continuous
 62
     7
100
AcDbPolyline
 90
       89
 70
   128
 43
0.0
 10
68.1983232498
 20
27.4163306671
 10
68.1984967437
 20
27.4270478145
 10
68.1989474648
 20
27.4373142408
 10
68.1996986667
 20
27.4470297857
 10
68.2007503494
 20
27.4561944491
 10
68.2020524328
 20
27.4649083914
 10
68.203705077
 20
27.4730714523
 10
68.2056081219
 20
27.4807337119
 10
68.2078617276
 20
27.4878951703
 10
68.2103657341
 20
27.4946059075
 10
68.2132203014
 20
27.5008659235
 10
68.2162751892
 20
27.5066752184
 10
68.2196806379
 20
27.5120838722
 10
68.2233364873
 20
27.5169917248
 10
68.2273428975
 20
27.5215490164
 10
68.2315496283
 20
27.5256055068
 10
68.2361069199
 20
27.5292613562
 10
68.2409646924
 20
27.5324664844
 10
68.2460728655
 20
27.5352709716
 10
68.2515315994
 20
27.5376748177
 10
68.2572908142
 20
27.5395778626
 10
68.2633004296
 20
27.5410802664
 10
68.2696606058
 20
27.5421820293
 10
68.2763212629
 20
27.5428330709
 10
68.2832824007
 20
27.5430333914
 10
68.2832824007
 20
27.5430333914
 10
68.2934987469
 20
27.5425325902
 10
68.3031642116
 20
27.5410301863
 10
68.3122787949
 20
27.5384760998
 10
68.3208424969
 20
27.5349704908
 10
68.328705077
 20
27.5305133594
 10
68.3357162949
 20
27.5252048658
 10
68.3417759905
 20
27.5189448498
 10
68.3469843238
 20
27.5118334716
 10
68.3514915353
 20
27.5038707312
 10
68.3555981058
 20
27.4950566286
 10
68.3592038751
 20
27.485441244
 10
68.3623589232
 20
27.4749744972
 10
68.3637110866
 20
27.4693154427
 10
68.3649130097
 20
27.4631555869
 10
68.3659146123
 20
27.45654501
 10
68.3667659744
 20
27.4494336318
 10
68.3674170161
 20
27.4418715325
 10
68.3678677373
 20
27.4338587119
 10
68.3681181379
 20
27.4253450902
 10
68.3682182982
 20
27.4163306671
 10
68.3682182982
 20
27.4163306671
 10
68.3680680578
 20
27.4056635998
 10
68.3676173366
 20
27.3954973337
 10
68.3669162148
 20
27.3858819491
 10
68.3658645321
 20
27.3767172857
 10
68.3645624488
 20
27.3680534235
 10
68.3629098046
 20
27.3598903626
 10
68.3610067597
 20
27.352228103
 10
68.3588032341
 20
27.3450666446
 10
68.3562992276
 20
27.3384059876
 10
68.3534947405
 20
27.3321459716
 10
68.3504398526
 20
27.3262865966
 10
68.3470344039
 20
27.3209280228
 10
68.3433785546
 20
27.3159700902
 10
68.3394222244
 20
27.3114127985
 10
68.3351654135
 20
27.307306228
 10
68.3306081219
 20
27.3036503786
 10
68.3257503494
 20
27.3003951703
 10
68.3206421764
 20
27.2975906831
 10
68.3151834424
 20
27.2952369171
 10
68.3094242276
 20
27.2932837921
 10
68.3033645321
 20
27.2917813882
 10
68.2969542757
 20
27.2906796254
 10
68.2902936187
 20
27.2900285837
 10
68.2832824007
 20
27.2898282632
 10
68.2832824007
 20
27.2898282632
 10
68.2741177373
 20
27.2902289043
 10
68.2654538751
 20
27.2913306671
 10
68.2572908142
 20
27.2932337119
 10
68.2496786347
 20
27.2958378786
 10
68.2425171764
 20
27.2992433273
 10
68.2358565193
 20
27.303399978
 10
68.2297467437
 20
27.3082577504
 10
68.2240876892
 20
27.3139168049
 10
68.2240876892
 20
27.3139168049
 10
68.2180780738
 20
27.3226307472
 10
68.2128196603
 20
27.3325466126
 10
68.2084126091
 20
27.3435642408
 10
68.2048068398
 20
27.3557837921
 10
68.2019522725
 20
27.3692052664
 10
68.1999490674
 20
27.3837285036
 10
68.1987471443
 20
27.3994536639
 10
68.1983465033
 20
27.4163306671
  0
LWPOLYLINE
  5
131
330
1F
100
AcDbEntity
  8
0
  6
Continuous
 62
     7
100
AcDbPolyline
 90
       69
 70
   128
 43
0.0
 10
68.2303905487
 20
27.4164308273
 10
68.230648186
 20
27.4020077504
 10
68.2313493078
 20
27.3888366767
 10
68.2325512308
 20
27.3770177664
 10
68.2342038751
 20
27.3664508594
 10
68.2363573206
 20
27.3572361158
 10
68.2389614873
 20
27.3493234555
 10
68.2420664552
 20
27.3426627985
 10
68.2456221443
 20
27.3373543049
 10
68.2495283943
 20
27.3329973337
 10
68.2536850449
 20
27.329191244
 10
68.2580920962
 20
27.3259861158
 10
68.262699468
 20
27.323331869
 10
68.2675071603
 20
27.3212785837
 10
68.2725151732
 20
27.31982626
 10
68.2777735866
 20
27.3189748978
 10
68.2832824007
 20
27.3186744171
 10
68.2832824007
 20
27.3186744171
 10
68.2887912148
 20
27.3189748978
 10
68.2940496283
 20
27.31982626
 10
68.2990576411
 20
27.3213286639
 10
68.3038653334
 20
27.3233819491
 10
68.3084727052
 20
27.3259861158
 10
68.3128296764
 20
27.329191244
 10
68.316986327
 20
27.3329973337
 10
68.320892577
 20
27.337404385
 10
68.3244482661
 20
27.3427629587
 10
68.3275532341
 20
27.3493735357
 10
68.3302074808
 20
27.357336276
 10
68.3323609264
 20
27.3665510196
 10
68.3340135706
 20
27.3770678466
 10
68.3352154937
 20
27.3888867568
 10
68.3359166155
 20
27.4020077504
 10
68.3361670161
 20
27.4164308273
 10
68.3361670161
 20
27.4164308273
 10
68.3359166155
 20
27.4305534235
 10
68.3352154937
 20
27.4434740966
 10
68.3340636507
 20
27.4550926863
 10
68.3324610866
 20
27.465509353
 10
68.3303577212
 20
27.4747240966
 10
68.3278036347
 20
27.4826367568
 10
68.324798827
 20
27.489347494
 10
68.321293218
 20
27.494806228
 10
68.3174370482
 20
27.4993635196
 10
68.3133304776
 20
27.5032697696
 10
68.3089735065
 20
27.5066251382
 10
68.3043160546
 20
27.5093294652
 10
68.2993581219
 20
27.5114829107
 10
68.2941497885
 20
27.5129853145
 10
68.2886910546
 20
27.5138867568
 10
68.2829318398
 20
27.5141872376
 10
68.2829318398
 20
27.5141872376
 10
68.2774731058
 20
27.5139368369
 10
68.2722647725
 20
27.5131355549
 10
68.2673068398
 20
27.5117833914
 10
68.2625993078
 20
27.5099304267
 10
68.2581421764
 20
27.5074765004
 10
68.2539855257
 20
27.504571853
 10
68.2500291956
 20
27.501066244
 10
68.2463733462
 20
27.4970598337
 10
68.2463733462
 20
27.4970598337
 10
68.2426173366
 20
27.4910001382
 10
68.2393621283
 20
27.4838386799
 10
68.2366578014
 20
27.4754752985
 10
68.2344041956
 20
27.4660101543
 10
68.2326513911
 20
27.4553430869
 10
68.2313993879
 20
27.4435241767
 10
68.230648186
 20
27.4305534235
 10
68.2303977853
 20
27.4164308273
  0
LWPOLYLINE
  5
132
330
1F
100
AcDbEntity
  8
0
  6
Continuous
 62
     7
100
AcDbPolyline
 90
        8
 70
   128
 43
0.0
 10
68.4162378311
 20
27.2930333914
 10
68.4162952212
 20
27.3250846735
 10
68.4162952212
 20
27.3250846735
 10
68.4483465033
 20
27.3250846735
 10
68.4483465033
 20
27.3250846735
 10
68.4483465033
 20
27.2930333914
 10
68.4483465033
 20
27.2930333914
 10
68.4162952212
 20
27.2930333914
  0
LWPOLYLINE
  5
133
330
1F
100
AcDbEntity
  8
0
  6
Continuous
 62
     7
100
AcDbPolyline
 90
       22
 70
   128
 43
0.0
 10
68.605363369
 20
27.2930333914
 10
68.6053977853
 20
27.3539308273
 10
68.6053977853
 20
27.3539308273
 10
68.4868080417
 20
27.3539308273
 10
68.4868080417
 20
27.3539308273
 10
68.4868080417
 20
27.3859821094
 10
68.4868080417
 20
27.3859821094
 10
68.6118080417
 20
27.5398282632
 10
68.6118080417
 20
27.5398282632
 10
68.6374490674
 20
27.5398282632
 10
68.6374490674
 20
27.5398282632
 10
68.6374490674
 20
27.3859821094
 10
68.6374490674
 20
27.3859821094
 10
68.6695003494
 20
27.3859821094
 10
68.6695003494
 20
27.3859821094
 10
68.6695003494
 20
27.3539308273
 10
68.6695003494
 20
27.3539308273
 10
68.6374490674
 20
27.3539308273
 10
68.6374490674
 20
27.3539308273
 10
68.6374490674
 20
27.2930333914
 10
68.6374490674
 20
27.2930333914
 10
68.6053977853
 20
27.2930333914
  0
LWPOLYLINE
  5
134
330
1F
100
AcDbEntity
  8
0
  6
Continuous
 62
     7
100
AcDbPolyline
 90
        6
 70
   128
 43
0.0
 10
68.605363369
 20
27.3859821094
 10
68.6053977853
 20
27.4818855549
 10
68.6053977853
 20
27.4818855549
 10
68.5274230257
 20
27.3859821094
 10
68.5274230257
 20
27.3859821094
 10
68.6053977853
 20
27.3859821094
  0
LWPOLYLINE
  5
135
330
1F
100
AcDbEntity
  8
0
  6
Continuous
 62
     7
100
AcDbPolyline
 90
      141
 70
   128
 43
0.0
 10
68.8681602478
 20
27.4789308273
 10
68.8361670161
 20
27.4757256991
 10
68.8361670161
 20
27.4757256991
 10
68.8337130898
 20
27.4839388402
 10
68.8307583623
 20
27.4909500581
 10
68.8273529135
 20
27.496759353
 10
68.8234967437
 20
27.5013667248
 10
68.8234967437
 20
27.5013667248
 10
68.8199911347
 20
27.5043715325
 10
68.8162852052
 20
27.5069756991
 10
68.8123789552
 20
27.5091792248
 10
68.8082723847
 20
27.5109821094
 10
68.8039654937
 20
27.512384353
 10
68.7995083623
 20
27.5133859555
 10
68.7948008302
 20
27.5139869171
 10
68.7898929776
 20
27.5141872376
 10
68.7898929776
 20
27.5141872376
 10
68.7820303975
 20
27.5137365164
 10
68.774418218
 20
27.5123342728
 10
68.7671065193
 20
27.5100305869
 10
68.7600953014
 20
27.5067753786
 10
68.7600953014
 20
27.5067753786
 10
68.7532844039
 20
27.5014168049
 10
68.7471245482
 20
27.4949564684
 10
68.7416157341
 20
27.487394369
 10
68.7367078815
 20
27.4787305068
 10
68.734554436
 20
27.4738727344
 10
68.7327014712
 20
27.4684140004
 10
68.7310989071
 20
27.4623543049
 10
68.7297467437
 20
27.455743728
 10
68.728695061
 20
27.4485822696
 10
68.7279438591
 20
27.4408198498
 10
68.7274430578
 20
27.4324564684
 10
68.7271926571
 20
27.4235422055
 10
68.7271926571
 20
27.4235422055
 10
68.7334526732
 20
27.4313547055
 10
68.740413811
 20
27.4381155228
 10
68.7479759103
 20
27.4437745773
 10
68.7562391315
 20
27.4483819491
 10
68.7649530738
 20
27.4519376382
 10
68.7738172565
 20
27.4544917248
 10
68.7829318398
 20
27.4559941286
 10
68.7922467437
 20
27.4564949299
 10
68.7922467437
 20
27.4564949299
 10
68.8003096443
 20
27.456144369
 10
68.8081221443
 20
27.4550926863
 10
68.8155840834
 20
27.4532898017
 10
68.8227455417
 20
27.4508358754
 10
68.8296065193
 20
27.4476307472
 10
68.836116936
 20
27.4437745773
 10
68.842376952
 20
27.4391672055
 10
68.8482864071
 20
27.4338587119
 10
68.853695061
 20
27.4279993369
 10
68.858402593
 20
27.4217393209
 10
68.8624090033
 20
27.4150285837
 10
68.8656642116
 20
27.4079172055
 10
68.868168218
 20
27.4004051863
 10
68.8699711026
 20
27.392492526
 10
68.8710728655
 20
27.3841291446
 10
68.8714234264
 20
27.3753651222
 10
68.8714234264
 20
27.3753651222
 10
68.8707223046
 20
27.3637966126
 10
68.8687190994
 20
27.3526788241
 10
68.8653136507
 20
27.3419115966
 10
68.8605560385
 20
27.3315950902
 10
68.8577014712
 20
27.3266872376
 10
68.8546465834
 20
27.3220798658
 10
68.8512912148
 20
27.3177729748
 10
68.8477355257
 20
27.3137164844
 10
68.8438793558
 20
27.3100105549
 10
68.8397727853
 20
27.306555026
 10
68.8354158142
 20
27.3034500581
 10
68.8308084424
 20
27.3005954908
 10
68.8260007501
 20
27.2980914844
 10
68.8210428174
 20
27.2958879587
 10
68.8158845642
 20
27.294034994
 10
68.8106261507
 20
27.2925325902
 10
68.8051674167
 20
27.2913306671
 10
68.7995584424
 20
27.2904793049
 10
68.7937491475
 20
27.2899785036
 10
68.7878396924
 20
27.2898282632
 10
68.7878396924
 20
27.2898282632
 10
68.7778236667
 20
27.2902789844
 10
68.7683084424
 20
27.2915810677
 10
68.7592439392
 20
27.2937845934
 10
68.7506301571
 20
27.2968394812
 10
68.7425171764
 20
27.3007457312
 10
68.7348549167
 20
27.3055534235
 10
68.7276934584
 20
27.3112625581
 10
68.7209827212
 20
27.3178230549
 10
68.7149230257
 20
27.3253851543
 10
68.7096646123
 20
27.3340990966
 10
68.705257561
 20
27.3439148017
 10
68.7016017116
 20
27.3548823498
 10
68.6987972244
 20
27.3670017408
 10
68.6967439392
 20
27.3802228946
 10
68.6955420161
 20
27.3945958914
 10
68.6951413751
 20
27.410070651
 10
68.6951413751
 20
27.410070651
 10
68.6952415353
 20
27.4188847536
 10
68.6955920962
 20
27.4274484555
 10
68.6961429776
 20
27.4356615966
 10
68.6969442597
 20
27.4435742568
 10
68.6979458623
 20
27.4511864363
 10
68.6991978655
 20
27.458498135
 10
68.7006501892
 20
27.4654592728
 10
68.7023529135
 20
27.47217001
 10
68.7042559584
 20
27.4785301863
 10
68.7064094039
 20
27.4846399619
 10
68.7087631699
 20
27.4903991767
 10
68.7113673366
 20
27.4958579107
 10
68.7141718238
 20
27.5010161639
 10
68.7172267116
 20
27.5058739363
 10
68.7204819199
 20
27.5103811478
 10
68.7239875289
 20
27.5146379587
 10
68.7239875289
 20
27.5146379587
 10
68.7305480257
 20
27.5212986158
 10
68.7376594039
 20
27.5270578305
 10
68.7453216635
 20
27.5319656831
 10
68.7535348046
 20
27.5359220132
 10
68.762298827
 20
27.5390269812
 10
68.7715636507
 20
27.5412805869
 10
68.781429436
 20
27.5425826703
 10
68.7917960225
 20
27.5430333914
 10
68.7917960225
 20
27.5430333914
 10
68.7995584424
 20
27.5427829908
 10
68.8069703014
 20
27.5419817087
 10
68.8139815193
 20
27.5406295453
 10
68.8206922565
 20
27.5387765805
 10
68.8270023526
 20
27.5363727344
 10
68.8329618879
 20
27.5334680869
 10
68.8385708623
 20
27.5300125581
 10
68.8438292757
 20
27.5260061478
 10
68.848636968
 20
27.5215490164
 10
68.8529939392
 20
27.516691244
 10
68.8568000289
 20
27.5113827504
 10
68.8601053174
 20
27.5057236959
 10
68.8629098046
 20
27.4996139203
 10
68.8651634103
 20
27.4931535837
 10
68.8669662949
 20
27.486242526
 10
68.8682182982
 20
27.4789308273
  0
LWPOLYLINE
  5
136
330
1F
100
AcDbEntity
  8
0
  6
Continuous
 62
     7
100
AcDbPolyline
 90
       64
 70
   128
 43
0.0
 10
68.7271356583
 20
27.3760161639
 10
68.7276934584
 20
27.3685041446
 10
68.729095702
 20
27.3611924459
 10
68.7314995482
 20
27.3539809075
 10
68.7348549167
 20
27.3469696895
 10
68.7390616475
 20
27.3404592728
 10
68.7438693398
 20
27.3348002184
 10
68.7493781539
 20
27.3299424459
 10
68.7555380097
 20
27.3258859555
 10
68.762298827
 20
27.3227309075
 10
68.7695103655
 20
27.3204773017
 10
68.7771726251
 20
27.3191251382
 10
68.785335686
 20
27.3186744171
 10
68.785335686
 20
27.3186744171
 10
68.7911449808
 20
27.3189248177
 10
68.7966537949
 20
27.3196259395
 10
68.8019122084
 20
27.3207777825
 10
68.8069202212
 20
27.3224304267
 10
68.8116277533
 20
27.3245337921
 10
68.8160848847
 20
27.3270878786
 10
68.8202916155
 20
27.3301427664
 10
68.8241978655
 20
27.3336483754
 10
68.8277535546
 20
27.3375546254
 10
68.8308585225
 20
27.3418114363
 10
68.8334626892
 20
27.346368728
 10
68.8355660546
 20
27.3513266607
 10
68.8372186988
 20
27.3565850741
 10
68.8384206219
 20
27.3621439684
 10
68.8391217437
 20
27.3681035036
 10
68.8393721443
 20
27.3743635196
 10
68.8393721443
 20
27.3743635196
 10
68.8391217437
 20
27.380373135
 10
68.8384206219
 20
27.3860822696
 10
68.8372687789
 20
27.3914909235
 10
68.8356161347
 20
27.3964989363
 10
68.8335127693
 20
27.4012064684
 10
68.8309586828
 20
27.4056135196
 10
68.8279037949
 20
27.40967001
 10
68.824398186
 20
27.4133759395
 10
68.820491936
 20
27.4167313081
 10
68.8162852052
 20
27.4196359555
 10
68.8117279135
 20
27.4220898818
 10
68.806820061
 20
27.4240930869
 10
68.8016117276
 20
27.4256455709
 10
68.7960528334
 20
27.4267473337
 10
68.7901934584
 20
27.4274484555
 10
68.7839835225
 20
27.427648776
 10
68.7839835225
 20
27.427648776
 10
68.7781742276
 20
27.4274484555
 10
68.7725652533
 20
27.4267473337
 10
68.7672066796
 20
27.4256455709
 10
68.7620484264
 20
27.4240930869
 10
68.7571405738
 20
27.4220898818
 10
68.7524330417
 20
27.4196359555
 10
68.7479759103
 20
27.4167313081
 10
68.7437190994
 20
27.4133759395
 10
68.7398629296
 20
27.40967001
 10
68.736507561
 20
27.4057136799
 10
68.7336529937
 20
27.401456869
 10
68.7313493078
 20
27.3969496575
 10
68.729496343
 20
27.392091885
 10
68.7282443398
 20
27.3870337921
 10
68.7274430578
 20
27.3816752184
 10
68.7271926571
 20
27.3760161639
  0
LWPOLYLINE
  5
137
330
1F
100
AcDbEntity
  8
0
  6
Continuous
 62
     7
100
AcDbPolyline
 90
      130
 70
   128
 43
0.0
 10
69.0106749535
 20
27.2930333914
 10
69.0106962629
 20
27.4757256991
 10
69.0106962629
 20
27.4757256991
 10
69.0427475449
 20
27.4757256991
 10
69.0427475449
 20
27.4757256991
 10
69.0427475449
 20
27.4472301062
 10
69.0427475449
 20
27.4472301062
 10
69.0474049969
 20
27.4540410036
 10
69.0527635706
 20
27.4601006991
 10
69.0588733462
 20
27.465509353
 10
69.0656341635
 20
27.470216885
 10
69.0730460225
 20
27.4740229748
 10
69.0809586828
 20
27.4767773818
 10
69.0893220642
 20
27.4783799459
 10
69.098236327
 20
27.4789308273
 10
69.098236327
 20
27.4789308273
 10
69.1079518719
 20
27.4783799459
 10
69.1167158943
 20
27.4766772216
 10
69.1245784744
 20
27.4738727344
 10
69.1315396123
 20
27.4699664844
 10
69.1375492276
 20
27.4650586318
 10
69.1426574007
 20
27.4592994171
 10
69.1467639712
 20
27.4525886799
 10
69.1499190193
 20
27.4450265805
 10
69.1499190193
 20
27.4450265805
 10
69.1557783943
 20
27.4529893209
 10
69.1620384103
 20
27.4598502985
 10
69.1686990674
 20
27.4657096735
 10
69.1758104456
 20
27.4704672857
 10
69.1833725449
 20
27.4741732152
 10
69.1913352853
 20
27.4768274619
 10
69.1996986667
 20
27.4783799459
 10
69.2085127693
 20
27.4789308273
 10
69.2085127693
 20
27.4789308273
 10
69.2153737469
 20
27.4786804267
 10
69.2218340834
 20
27.4779793049
 10
69.2278436988
 20
27.4768274619
 10
69.2335027533
 20
27.4751748177
 10
69.2387110866
 20
27.4730714523
 10
69.2435187789
 20
27.4705173658
 10
69.2479258302
 20
27.467462478
 10
69.2519322405
 20
27.463956869
 10
69.2554879296
 20
27.4599504587
 10
69.2585928975
 20
27.4554432472
 10
69.2611970642
 20
27.4504352344
 10
69.2633004296
 20
27.4449264203
 10
69.2649530738
 20
27.4389168049
 10
69.2661549969
 20
27.4324063882
 10
69.2668561187
 20
27.4253450902
 10
69.2671065193
 20
27.4178330709
 10
69.2671065193
 20
27.4178330709
 10
69.2671065193
 20
27.2930333914
 10
69.2671065193
 20
27.2930333914
 10
69.2350552373
 20
27.2930333914
 10
69.2350552373
 20
27.2930333914
 10
69.2350552373
 20
27.4060141607
 10
69.2350552373
 20
27.4060141607
 10
69.2348549167
 20
27.4144777023
 10
69.2342539552
 20
27.4216892408
 10
69.2333024328
 20
27.4275986959
 10
69.2319001892
 20
27.4322561478
 10
69.2300472244
 20
27.4360622376
 10
69.227543218
 20
27.4395177664
 10
69.2243881699
 20
27.4425225741
 10
69.2205820802
 20
27.4451768209
 10
69.2163252693
 20
27.4473302664
 10
69.2116678174
 20
27.4488827504
 10
69.2067098847
 20
27.4497841927
 10
69.201351311
 20
27.4500846735
 10
69.201351311
 20
27.4500846735
 10
69.1964434584
 20
27.449884353
 10
69.1917860065
 20
27.4492833914
 10
69.1872787949
 20
27.448331869
 10
69.1830219841
 20
27.4469296254
 10
69.1789654937
 20
27.4451768209
 10
69.1751594039
 20
27.4430233754
 10
69.1715035546
 20
27.4404692889
 10
69.1680981058
 20
27.4375145613
 10
69.1649931379
 20
27.4341591927
 10
69.1623388911
 20
27.4303030228
 10
69.1600852853
 20
27.4259460517
 10
69.1582323206
 20
27.4211884395
 10
69.1567799969
 20
27.4158799459
 10
69.1557283142
 20
27.4101708113
 10
69.1551273526
 20
27.4039608754
 10
69.1549270321
 20
27.3972501382
 10
69.1549270321
 20
27.3972501382
 10
69.1549270321
 20
27.2930333914
 10
69.1549270321
 20
27.2930333914
 10
69.1228757501
 20
27.2930333914
 10
69.1228757501
 20
27.2930333914
 10
69.1228757501
 20
27.4095698498
 10
69.1228757501
 20
27.4095698498
 10
69.1227755898
 20
27.4144777023
 10
69.1223749488
 20
27.419034994
 10
69.1217739873
 20
27.423341885
 10
69.1209226251
 20
27.4272982152
 10
69.1198208623
 20
27.4309039844
 10
69.1184686988
 20
27.4342092728
 10
69.1169162148
 20
27.4372140805
 10
69.1150632501
 20
27.4399184075
 10
69.1129598847
 20
27.4423222536
 10
69.1105560385
 20
27.4443755389
 10
69.1078016315
 20
27.4461283434
 10
69.1047467437
 20
27.4475305869
 10
69.1013913751
 20
27.4486323498
 10
69.0977355257
 20
27.4494336318
 10
69.0937791956
 20
27.4499344331
 10
69.0894723046
 20
27.4500846735
 10
69.0894723046
 20
27.4500846735
 10
69.0828617276
 20
27.4496840325
 10
69.0765015514
 20
27.4483819491
 10
69.0703917757
 20
27.4462785837
 10
69.0645324007
 20
27.4433238562
 10
69.059173827
 20
27.4395678466
 10
69.0546666155
 20
27.4350105549
 10
69.0508605257
 20
27.4296519812
 10
69.0479057982
 20
27.4235422055
 10
69.0467038751
 20
27.4201367568
 10
69.0456521924
 20
27.4163306671
 10
69.0447507501
 20
27.4121740164
 10
69.0440496283
 20
27.407716885
 10
69.0434486667
 20
27.4028090325
 10
69.0430480257
 20
27.3976006991
 10
69.0428477052
 20
27.3920418049
 10
69.0427475449
 20
27.3860822696
 10
69.0427475449
 20
27.3860822696
 10
69.0427475449
 20
27.2930333914
 10
69.0427475449
 20
27.2930333914
 10
69.0106962629
 20
27.2930333914
  0
LWPOLYLINE
  5
138
330
1F
100
AcDbEntity
  8
0
  6
Continuous
 62
     7
100
AcDbPolyline
 90
        8
 70
   128
 43
0.0
 10
64.8585557938
 20
18.4913185957
 10
64.8586030941
 20
18.9913185957
 10
64.8586030941
 20
18.9913185957
 10
64.9611671967
 20
18.9913185957
 10
64.9611671967
 20
18.9913185957
 10
64.9611671967
 20
18.4913185957
 10
64.9611671967
 20
18.4913185957
 10
64.8586030941
 20
18.4913185957
  0
LWPOLYLINE
  5
139
330
1F
100
AcDbEntity
  8
0
  6
Continuous
 62
     7
100
AcDbPolyline
 90
       76
 70
   128
 43
0.0
 10
65.3970241547
 20
18.4913185957
 10
65.29450053
 20
18.4913185957
 10
65.29450053
 20
18.4913185957
 10
65.29450053
 20
18.6788185957
 10
65.29450053
 20
18.6788185957
 10
65.2944003698
 20
18.6930413521
 10
65.294099889
 20
18.7059620252
 10
65.293699248
 20
18.7174804547
 10
65.2929981262
 20
18.7277969611
 10
65.2921968441
 20
18.7367112239
 10
65.2910950813
 20
18.7444235637
 10
65.2898931582
 20
18.7507336598
 10
65.2884909146
 20
18.7557416726
 10
65.2850854659
 20
18.7640549739
 10
65.2806784146
 20
18.7712665124
 10
65.2753699211
 20
18.7775766085
 10
65.2691599852
 20
18.7828851021
 10
65.2621487672
 20
18.7870918329
 10
65.2543362672
 20
18.7901968008
 10
65.2459228057
 20
18.7919996855
 10
65.2368082223
 20
18.792600647
 10
65.2368082223
 20
18.792600647
 10
65.2249893121
 20
18.7916992047
 10
65.2138715236
 20
18.7891951983
 10
65.2032545364
 20
18.784788147
 10
65.1933386711
 20
18.7787785316
 10
65.1845245685
 20
18.7712665124
 10
65.1771127095
 20
18.7627528906
 10
65.1713034146
 20
18.7529371855
 10
65.1669965236
 20
18.7421198778
 10
65.1652937993
 20
18.7358097816
 10
65.1638915557
 20
18.7282977624
 10
65.1626896326
 20
18.7195838201
 10
65.16168803
 20
18.7095677944
 10
65.160886748
 20
18.698450006
 10
65.1602857864
 20
18.6860301342
 10
65.1599853057
 20
18.6725084996
 10
65.1598851454
 20
18.6576847816
 10
65.1598851454
 20
18.6576847816
 10
65.1598851454
 20
18.4913185957
 10
65.1598851454
 20
18.4913185957
 10
65.0573210429
 20
18.4913185957
 10
65.0573210429
 20
18.4913185957
 10
65.0573210429
 20
18.8567032111
 10
65.0573210429
 20
18.8567032111
 10
65.1598851454
 20
18.8567032111
 10
65.1598851454
 20
18.8567032111
 10
65.1598851454
 20
18.8040189162
 10
65.1598851454
 20
18.8040189162
 10
65.1719043762
 20
18.8178410316
 10
65.184724889
 20
18.8298602624
 10
65.1982465236
 20
18.8400766085
 10
65.2125694403
 20
18.8483899098
 10
65.2275934787
 20
18.8548001662
 10
65.2434187993
 20
18.859407538
 10
65.2599452416
 20
18.8622120252
 10
65.2772729659
 20
18.8631134675
 10
65.2772729659
 20
18.8631134675
 10
65.2925974852
 20
18.8624123457
 10
65.3072208826
 20
18.8602088201
 10
65.3211431582
 20
18.8566030508
 10
65.3343643121
 20
18.851595038
 10
65.3464837031
 20
18.8454852624
 10
65.3571006903
 20
18.8385742047
 10
65.3660149531
 20
18.830861865
 10
65.3734268121
 20
18.8223482432
 10
65.3795365877
 20
18.8131334996
 10
65.3846447608
 20
18.8034179547
 10
65.3887513313
 20
18.793001288
 10
65.3918562993
 20
18.7819836598
 10
65.3941599852
 20
18.7694636278
 10
65.3957625493
 20
18.7545397496
 10
65.3967641518
 20
18.737111865
 10
65.3970646326
 20
18.7172801342
 10
65.3970646326
 20
18.7172801342
 10
65.3970646326
 20
18.4913185957
  0
LWPOLYLINE
  5
13A
330
1F
100
AcDbEntity
  8
0
  6
Continuous
 62
     7
100
AcDbPolyline
 90
       62
 70
   128
 43
0.0
 10
65.8393502235
 20
18.4913185957
 10
65.7368082223
 20
18.4913185957
 10
65.7368082223
 20
18.4913185957
 10
65.7368082223
 20
18.5441030508
 10
65.7368082223
 20
18.5441030508
 10
65.7252897929
 20
18.5296799739
 10
65.7127697608
 20
18.5174604226
 10
65.6993482864
 20
18.5071439162
 10
65.6848250493
 20
18.4990309355
 10
65.6698010108
 20
18.4928209996
 10
65.6547769723
 20
18.4884139483
 10
65.6395526134
 20
18.4858097816
 10
65.6243282544
 20
18.4849083393
 10
65.6243282544
 20
18.4849083393
 10
65.6091038954
 20
18.4857096214
 10
65.594480498
 20
18.4880133073
 10
65.5803579018
 20
18.4920197175
 10
65.5668362672
 20
18.4975285316
 10
65.5538154339
 20
18.5045397496
 10
65.5413955621
 20
18.5131535316
 10
65.5294764916
 20
18.5233698778
 10
65.5181583826
 20
18.535188788
 10
65.5078418762
 20
18.5484099419
 10
65.4988274531
 20
18.5628330188
 10
65.4912152736
 20
18.5784580188
 10
65.4850053377
 20
18.5953851021
 10
65.4801976454
 20
18.6135141085
 10
65.4767921967
 20
18.6329451983
 10
65.4746888313
 20
18.6535782111
 10
65.4739877095
 20
18.675413147
 10
65.4739877095
 20
18.675413147
 10
65.4746888313
 20
18.6977488842
 10
65.4767921967
 20
18.7186823778
 10
65.4801976454
 20
18.7382136278
 10
65.4850053377
 20
18.7563426342
 10
65.4912152736
 20
18.7731695573
 10
65.4988274531
 20
18.7885942367
 10
65.5078418762
 20
18.8026166726
 10
65.5181583826
 20
18.815236865
 10
65.5295766518
 20
18.8264548137
 10
65.5416960429
 20
18.8361703585
 10
65.5545165557
 20
18.8443834996
 10
65.5681383505
 20
18.851194397
 10
65.5824612672
 20
18.8564027303
 10
65.5974853057
 20
18.8601086598
 10
65.6132104659
 20
18.8624123457
 10
65.6297369082
 20
18.8631134675
 10
65.6297369082
 20
18.8631134675
 10
65.6449612672
 20
18.8623121855
 10
65.6596848249
 20
18.8600084996
 10
65.6738074211
 20
18.8561022496
 10
65.6874292159
 20
18.8505934355
 10
65.7005502095
 20
18.8435822175
 10
65.7131704018
 20
18.8349684355
 10
65.7252897929
 20
18.8248522496
 10
65.7368082223
 20
18.8131334996
 10
65.7368082223
 20
18.8131334996
 10
65.7368082223
 20
18.9913185957
 10
65.7368082223
 20
18.9913185957
 10
65.8393723249
 20
18.9913185957
 10
65.8393723249
 20
18.9913185957
 10
65.8393723249
 20
18.4913185957
  0
LWPOLYLINE
  5
13B
330
1F
100
AcDbEntity
  8
0
  6
Continuous
 62
     7
100
AcDbPolyline
 90
       69
 70
   128
 43
0.0
 10
65.5764937401
 20
18.6809219611
 10
65.5768522929
 20
18.6663987239
 10
65.5775534146
 20
18.6529772496
 10
65.578855498
 20
18.6405573778
 10
65.5805582223
 20
18.6292392688
 10
65.5828619082
 20
18.6189227624
 10
65.5855662352
 20
18.6096078585
 10
65.5888715236
 20
18.6013947175
 10
65.5925774531
 20
18.5941831791
 10
65.5925774531
 20
18.5941831791
 10
65.5986872287
 20
18.5850685957
 10
65.6052978057
 20
18.5772560957
 10
65.6125093441
 20
18.5705453585
 10
65.6203218441
 20
18.5651367047
 10
65.6287353057
 20
18.5608298137
 10
65.6377497287
 20
18.557825006
 10
65.6472649531
 20
18.5560221214
 10
65.657381139
 20
18.5554211598
 10
65.657381139
 20
18.5554211598
 10
65.6654941198
 20
18.5559219611
 10
65.6733066198
 20
18.5572240444
 10
65.680818639
 20
18.5595277303
 10
65.6879300172
 20
18.5627328585
 10
65.6948410749
 20
18.5667392688
 10
65.7013514916
 20
18.5717472816
 10
65.7076615877
 20
18.5776567367
 10
65.7135710429
 20
18.5844676342
 10
65.7189796967
 20
18.5921799739
 10
65.723787389
 20
18.600793756
 10
65.727693639
 20
18.6103089803
 10
65.7309989275
 20
18.6208258073
 10
65.7335029339
 20
18.632043756
 10
65.7354059787
 20
18.6442633073
 10
65.7364075813
 20
18.6573843008
 10
65.7368082223
 20
18.6714067367
 10
65.7368082223
 20
18.6714067367
 10
65.7364075813
 20
18.6869315765
 10
65.7354059787
 20
18.7013546534
 10
65.7336030941
 20
18.7146759675
 10
65.731199248
 20
18.7268955188
 10
65.7279941198
 20
18.737913147
 10
65.7240878698
 20
18.7478290124
 10
65.7195806582
 20
18.756643115
 10
65.7142721646
 20
18.7642552944
 10
65.7084628698
 20
18.7708658714
 10
65.7022529339
 20
18.7766751662
 10
65.695642357
 20
18.7814828585
 10
65.688631139
 20
18.7854892688
 10
65.68121928
 20
18.7885942367
 10
65.6735069403
 20
18.7907977624
 10
65.6652937993
 20
18.792200006
 10
65.6566800172
 20
18.792600647
 10
65.6566800172
 20
18.792600647
 10
65.6483667159
 20
18.792200006
 10
65.6403538954
 20
18.7908979226
 10
65.6326415557
 20
18.788694397
 10
65.6254300172
 20
18.7855894291
 10
65.6184187993
 20
18.7816831791
 10
65.6118082223
 20
18.7768754867
 10
65.6054981262
 20
18.7711663521
 10
65.5995886711
 20
18.7645557752
 10
65.5941800172
 20
18.7571439162
 10
65.5894724852
 20
18.748830615
 10
65.5855662352
 20
18.7397160316
 10
65.582361107
 20
18.729700006
 10
65.5797569403
 20
18.718782538
 10
65.5779540557
 20
18.707063788
 10
65.5769524531
 20
18.6944435957
 10
65.5765518121
 20
18.6809219611
  0
LWPOLYLINE
  5
13C
330
1F
100
AcDbEntity
  8
0
  6
Continuous
 62
     7
100
AcDbPolyline
 90
        8
 70
   128
 43
0.0
 10
65.9419298172
 20
18.9079852624
 10
65.9419364275
 20
18.9913185957
 10
65.9419364275
 20
18.9913185957
 10
66.04450053
 20
18.9913185957
 10
66.04450053
 20
18.9913185957
 10
66.04450053
 20
18.9079852624
 10
66.04450053
 20
18.9079852624
 10
65.9419364275
 20
18.9079852624
  0
LWPOLYLINE
  5
13D
330
1F
100
AcDbEntity
  8
0
  6
Continuous
 62
     7
100
AcDbPolyline
 90
        8
 70
   128
 43
0.0
 10
65.9419298172
 20
18.4913185957
 10
65.9419364275
 20
18.8567032111
 10
65.9419364275
 20
18.8567032111
 10
66.04450053
 20
18.8567032111
 10
66.04450053
 20
18.8567032111
 10
66.04450053
 20
18.4913185957
 10
66.04450053
 20
18.4913185957
 10
65.9419364275
 20
18.4913185957
  0
LWPOLYLINE
  5
13E
330
1F
100
AcDbEntity
  8
0
  6
Continuous
 62
     7
100
AcDbPolyline
 90
       24
 70
   128
 43
0.0
 10
66.2418007851
 20
18.4913185957
 10
66.0925774531
 20
18.8567032111
 10
66.0925774531
 20
18.8567032111
 10
66.1951415557
 20
18.8567032111
 10
66.1951415557
 20
18.8567032111
 10
66.2647529339
 20
18.6702048137
 10
66.2647529339
 20
18.6702048137
 10
66.2848851454
 20
18.6079051342
 10
66.2848851454
 20
18.6079051342
 10
66.2884909146
 20
18.6187224419
 10
66.2913955621
 20
18.6276367047
 10
66.2934989275
 20
18.6344476021
 10
66.2949011711
 20
18.6392552944
 10
66.2949011711
 20
18.6392552944
 10
66.2999091839
 20
18.6546799739
 10
66.3052176775
 20
18.6702048137
 10
66.3052176775
 20
18.6702048137
 10
66.3746287352
 20
18.8567032111
 10
66.3746287352
 20
18.8567032111
 10
66.4771928377
 20
18.8567032111
 10
66.4771928377
 20
18.8567032111
 10
66.3300574211
 20
18.4913185957
 10
66.3300574211
 20
18.4913185957
 10
66.2418162352
 20
18.4913185957
  0
LWPOLYLINE
  5
13F
330
1F
100
AcDbEntity
  8
0
  6
Continuous
 62
     7
100
AcDbPolyline
 90
        8
 70
   128
 43
0.0
 10
66.5444731712
 20
18.9079852624
 10
66.54450053
 20
18.9913185957
 10
66.54450053
 20
18.9913185957
 10
66.6470646326
 20
18.9913185957
 10
66.6470646326
 20
18.9913185957
 10
66.6470646326
 20
18.9079852624
 10
66.6470646326
 20
18.9079852624
 10
66.54450053
 20
18.9079852624
  0
LWPOLYLINE
  5
140
330
1F
100
AcDbEntity
  8
0
  6
Continuous
 62
     7
100
AcDbPolyline
 90
        8
 70
   128
 43
0.0
 10
66.5444731712
 20
18.4913185957
 10
66.54450053
 20
18.8567032111
 10
66.54450053
 20
18.8567032111
 10
66.6470646326
 20
18.8567032111
 10
66.6470646326
 20
18.8567032111
 10
66.6470646326
 20
18.4913185957
 10
66.6470646326
 20
18.4913185957
 10
66.54450053
 20
18.4913185957
  0
LWPOLYLINE
  5
141
330
1F
100
AcDbEntity
  8
0
  6
Continuous
 62
     7
100
AcDbPolyline
 90
       62
 70
   128
 43
0.0
 10
67.0829415321
 20
18.4913185957
 10
66.9803979659
 20
18.4913185957
 10
66.9803979659
 20
18.4913185957
 10
66.9803979659
 20
18.5441030508
 10
66.9803979659
 20
18.5441030508
 10
66.9688795364
 20
18.5296799739
 10
66.9563595044
 20
18.5174604226
 10
66.94293803
 20
18.5071439162
 10
66.9284147929
 20
18.4990309355
 10
66.9133907544
 20
18.4928209996
 10
66.8983667159
 20
18.4884139483
 10
66.883142357
 20
18.4858097816
 10
66.867917998
 20
18.4849083393
 10
66.867917998
 20
18.4849083393
 10
66.852693639
 20
18.4857096214
 10
66.8380702416
 20
18.4880133073
 10
66.8239476454
 20
18.4920197175
 10
66.8104260108
 20
18.4975285316
 10
66.7974051775
 20
18.5045397496
 10
66.7849853057
 20
18.5131535316
 10
66.7730662352
 20
18.5233698778
 10
66.7617481262
 20
18.535188788
 10
66.7514316198
 20
18.5484099419
 10
66.7424171967
 20
18.5628330188
 10
66.7348050172
 20
18.5784580188
 10
66.7285950813
 20
18.5953851021
 10
66.723787389
 20
18.6135141085
 10
66.7203819403
 20
18.6329451983
 10
66.7182785749
 20
18.6535782111
 10
66.7175774531
 20
18.675413147
 10
66.7175774531
 20
18.675413147
 10
66.7182785749
 20
18.6977488842
 10
66.7203819403
 20
18.7186823778
 10
66.723787389
 20
18.7382136278
 10
66.7285950813
 20
18.7563426342
 10
66.7348050172
 20
18.7731695573
 10
66.7424171967
 20
18.7885942367
 10
66.7514316198
 20
18.8026166726
 10
66.7617481262
 20
18.815236865
 10
66.7731663954
 20
18.8264548137
 10
66.7852857864
 20
18.8361703585
 10
66.7981062993
 20
18.8443834996
 10
66.8117280941
 20
18.851194397
 10
66.8260510108
 20
18.8564027303
 10
66.8410750493
 20
18.8601086598
 10
66.8568002095
 20
18.8624123457
 10
66.8733266518
 20
18.8631134675
 10
66.8733266518
 20
18.8631134675
 10
66.8885510108
 20
18.8623121855
 10
66.9032745685
 20
18.8600084996
 10
66.9173971646
 20
18.8561022496
 10
66.9310189595
 20
18.8505934355
 10
66.9441399531
 20
18.8435822175
 10
66.9567601454
 20
18.8349684355
 10
66.9688795364
 20
18.8248522496
 10
66.9803979659
 20
18.8131334996
 10
66.9803979659
 20
18.8131334996
 10
66.9803979659
 20
18.9913185957
 10
66.9803979659
 20
18.9913185957
 10
67.0829620685
 20
18.9913185957
 10
67.0829620685
 20
18.9913185957
 10
67.0829620685
 20
18.4913185957
  0
LWPOLYLINE
  5
142
330
1F
100
AcDbEntity
  8
0
  6
Continuous
 62
     7
100
AcDbPolyline
 90
       69
 70
   128
 43
0.0
 10
66.8200850487
 20
18.6809219611
 10
66.8204420364
 20
18.6663987239
 10
66.8211431582
 20
18.6529772496
 10
66.8224452416
 20
18.6405573778
 10
66.8241479659
 20
18.6292392688
 10
66.8264516518
 20
18.6189227624
 10
66.8291559787
 20
18.6096078585
 10
66.8324612672
 20
18.6013947175
 10
66.8361671967
 20
18.5941831791
 10
66.8361671967
 20
18.5941831791
 10
66.8422769723
 20
18.5850685957
 10
66.8488875493
 20
18.5772560957
 10
66.8560990877
 20
18.5705453585
 10
66.8639115877
 20
18.5651367047
 10
66.8723250493
 20
18.5608298137
 10
66.8813394723
 20
18.557825006
 10
66.8908546967
 20
18.5560221214
 10
66.9009708826
 20
18.5554211598
 10
66.9009708826
 20
18.5554211598
 10
66.9090838634
 20
18.5559219611
 10
66.9168963634
 20
18.5572240444
 10
66.9244083826
 20
18.5595277303
 10
66.9315197608
 20
18.5627328585
 10
66.9384308185
 20
18.5667392688
 10
66.9449412352
 20
18.5717472816
 10
66.9512513313
 20
18.5776567367
 10
66.9571607864
 20
18.5844676342
 10
66.9625694403
 20
18.5921799739
 10
66.9673771326
 20
18.600793756
 10
66.9712833826
 20
18.6103089803
 10
66.9745886711
 20
18.6208258073
 10
66.9770926775
 20
18.632043756
 10
66.9789957223
 20
18.6442633073
 10
66.9799973249
 20
18.6573843008
 10
66.9803979659
 20
18.6714067367
 10
66.9803979659
 20
18.6714067367
 10
66.9799973249
 20
18.6869315765
 10
66.9789957223
 20
18.7013546534
 10
66.9771928377
 20
18.7146759675
 10
66.9747889916
 20
18.7268955188
 10
66.9715838634
 20
18.737913147
 10
66.9676776134
 20
18.7478290124
 10
66.9631704018
 20
18.756643115
 10
66.9578619082
 20
18.7642552944
 10
66.9520526134
 20
18.7708658714
 10
66.9458426775
 20
18.7766751662
 10
66.9392321005
 20
18.7814828585
 10
66.9322208826
 20
18.7854892688
 10
66.9248090236
 20
18.7885942367
 10
66.9170966839
 20
18.7907977624
 10
66.9088835429
 20
18.792200006
 10
66.9002697608
 20
18.792600647
 10
66.9002697608
 20
18.792600647
 10
66.8919564595
 20
18.792200006
 10
66.883943639
 20
18.7908979226
 10
66.8762312993
 20
18.788694397
 10
66.8690197608
 20
18.7855894291
 10
66.8620085429
 20
18.7816831791
 10
66.8553979659
 20
18.7768754867
 10
66.8490878698
 20
18.7711663521
 10
66.8431784146
 20
18.7645557752
 10
66.8377697608
 20
18.7571439162
 10
66.8330622287
 20
18.748830615
 10
66.8291559787
 20
18.7397160316
 10
66.8259508505
 20
18.729700006
 10
66.8233466839
 20
18.718782538
 10
66.8215437993
 20
18.707063788
 10
66.8205421967
 20
18.6944435957
 10
66.8201415557
 20
18.6809219611
  0
LWPOLYLINE
  5
143
330
1F
100
AcDbEntity
  8
0
  6
Continuous
 62
     7
100
AcDbPolyline
 90
       76
 70
   128
 43
0.0
 10
67.4226880074
 20
18.4913185957
 10
67.4227056582
 20
18.5451046534
 10
67.4227056582
 20
18.5451046534
 10
67.4121888313
 20
18.5315830188
 10
67.4000694403
 20
18.5196639483
 10
67.3864476454
 20
18.5093474419
 10
67.3713234467
 20
18.5006334996
 10
67.3551976454
 20
18.4937224419
 10
67.3386712031
 20
18.4888145893
 10
67.3217441198
 20
18.4859099419
 10
67.3043162352
 20
18.4849083393
 10
67.3043162352
 20
18.4849083393
 10
67.2867881903
 20
18.4859099419
 10
67.2701615877
 20
18.4889147496
 10
67.2544364275
 20
18.4939227624
 10
67.2396127095
 20
18.5009339803
 10
67.2262913954
 20
18.5098482432
 10
67.2149732864
 20
18.5202649098
 10
67.2056583826
 20
18.5323843008
 10
67.1982465236
 20
18.546106256
 10
67.1952417159
 20
18.5537184355
 10
67.1926375493
 20
18.5620317367
 10
67.1905341839
 20
18.5710461598
 10
67.1887312993
 20
18.580861865
 10
67.1873290557
 20
18.5911783714
 10
67.1863274531
 20
18.6022961598
 10
67.1857264916
 20
18.6141150701
 10
67.1855261711
 20
18.6266351021
 10
67.1855261711
 20
18.6266351021
 10
67.1855261711
 20
18.8567032111
 10
67.1855261711
 20
18.8567032111
 10
67.2880902736
 20
18.8567032111
 10
67.2880902736
 20
18.8567032111
 10
67.2880902736
 20
18.6881334996
 10
67.2880902736
 20
18.6881334996
 10
67.2881904339
 20
18.6697040124
 10
67.2883907544
 20
18.6531775701
 10
67.2887913954
 20
18.6384540124
 10
67.289392357
 20
18.6257336598
 10
67.2900934787
 20
18.6148161919
 10
67.2909949211
 20
18.6057016085
 10
67.2919965236
 20
18.5985902303
 10
67.2931984467
 20
18.5932817367
 10
67.2963034146
 20
18.5850685957
 10
67.3005101454
 20
18.5776567367
 10
67.3057184787
 20
18.5712464803
 10
67.3120285749
 20
18.565637506
 10
67.3193402736
 20
18.5611302944
 10
67.3275534146
 20
18.5580253265
 10
67.3367681582
 20
18.5560221214
 10
67.3467841839
 20
18.5554211598
 10
67.3467841839
 20
18.5554211598
 10
67.3584027736
 20
18.5563226021
 10
67.3695205621
 20
18.5588266085
 10
67.3798370685
 20
18.5631334996
 10
67.3896527736
 20
18.5690429547
 10
67.3984668762
 20
18.5763546534
 10
67.4056784146
 20
18.5843674739
 10
67.4114877095
 20
18.5932817367
 10
67.4156944403
 20
18.6028971214
 10
67.4172970044
 20
18.6089067367
 10
67.4187994082
 20
18.6167192367
 10
67.4200013313
 20
18.6263346214
 10
67.4210029339
 20
18.6377528906
 10
67.4217040557
 20
18.6510742047
 10
67.4223050172
 20
18.6661984034
 10
67.422605498
 20
18.6831254867
 10
67.4227056582
 20
18.701955615
 10
67.4227056582
 20
18.701955615
 10
67.4227056582
 20
18.8567032111
 10
67.4227056582
 20
18.8567032111
 10
67.5252697608
 20
18.8567032111
 10
67.5252697608
 20
18.8567032111
 10
67.5252697608
 20
18.4913185957
 10
67.5252697608
 20
18.4913185957
 10
67.4227056582
 20
18.4913185957
  0
LWPOLYLINE
  5
144
330
1F
100
AcDbEntity
  8
0
  6
Continuous
 62
     7
100
AcDbPolyline
 90
      139
 70
   128
 43
0.0
 10
67.7047371864
 20
18.7477288521
 10
67.6150133505
 20
18.760549365
 10
67.6150133505
 20
18.760549365
 10
67.6191199211
 20
18.7731695573
 10
67.6238274531
 20
18.7849884675
 10
67.629236107
 20
18.7959059355
 10
67.6353458826
 20
18.8060221214
 10
67.6420566198
 20
18.8153370252
 10
67.6494684787
 20
18.8237504867
 10
67.6575814595
 20
18.831262506
 10
67.6662954018
 20
18.8379732432
 10
67.6759107864
 20
18.8438826983
 10
67.6867280941
 20
18.8489908714
 10
67.6985470044
 20
18.8532977624
 10
67.7114676775
 20
18.8568033714
 10
67.7254901134
 20
18.8596078585
 10
67.7407144723
 20
18.8615109034
 10
67.7569404339
 20
18.8627128265
 10
67.7742681582
 20
18.8631134675
 10
67.7742681582
 20
18.8631134675
 10
67.7899933185
 20
18.862913147
 10
67.8047168762
 20
18.8622120252
 10
67.8184388313
 20
18.8610101021
 10
67.8310590236
 20
18.8593073778
 10
67.8426776134
 20
18.8572040124
 10
67.8531944403
 20
18.8545998457
 10
67.8627096646
 20
18.8514948778
 10
67.8712232864
 20
18.8478891085
 10
67.8860470044
 20
18.8397761278
 10
67.8984668762
 20
18.8306615444
 10
67.9084829018
 20
18.8204451983
 10
67.9160950813
 20
18.8092272496
 10
67.919099889
 20
18.8027168329
 10
67.9218042159
 20
18.7951046534
 10
67.9240077416
 20
18.7860902303
 10
67.9259107864
 20
18.7759740444
 10
67.92731303
 20
18.7645557752
 10
67.9283146326
 20
18.7520357432
 10
67.9289155941
 20
18.7381134675
 10
67.9291159146
 20
18.7230894291
 10
67.9291159146
 20
18.7230894291
 10
67.9291159146
 20
18.6108097816
 10
67.9291159146
 20
18.6108097816
 10
67.9292160749
 20
18.5991911919
 10
67.9294163954
 20
18.5883738842
 10
67.9299171967
 20
18.5783578585
 10
67.9305181582
 20
18.569143115
 10
67.93121928
 20
18.5607296534
 10
67.9321207223
 20
18.5530173137
 10
67.9332224852
 20
18.5462064162
 10
67.9345245685
 20
18.5400966406
 10
67.937829857
 20
18.5284780508
 10
67.9423370685
 20
18.5165589803
 10
67.9479460429
 20
18.5041391085
 10
67.9547569403
 20
18.4913185957
 10
67.9547569403
 20
18.4913185957
 10
67.8521928377
 20
18.4913185957
 10
67.8521928377
 20
18.4913185957
 10
67.8501896326
 20
18.4971278906
 10
67.847986107
 20
18.5041391085
 10
67.8454821005
 20
18.5124524098
 10
67.8427777736
 20
18.5219676342
 10
67.8427777736
 20
18.5219676342
 10
67.8416760108
 20
18.526174365
 10
67.8407745685
 20
18.5295798137
 10
67.8399732864
 20
18.5322841406
 10
67.8393723249
 20
18.5340870252
 10
67.8393723249
 20
18.5340870252
 10
67.8266519723
 20
18.5225685957
 10
67.8134308185
 20
18.5126527303
 10
67.7998090236
 20
18.5041391085
 10
67.7857865877
 20
18.4972280508
 10
67.7712633505
 20
18.491819397
 10
67.7563394723
 20
18.4880133073
 10
67.7408146326
 20
18.4857096214
 10
67.7248891518
 20
18.4849083393
 10
67.7248891518
 20
18.4849083393
 10
67.7110670364
 20
18.4854091406
 10
67.6979460429
 20
18.4868113842
 10
67.6855261711
 20
18.4893153906
 10
67.6739075813
 20
18.4927208393
 10
67.6630902736
 20
18.4970277303
 10
67.6529740877
 20
18.5023362239
 10
67.6436591839
 20
18.5086463201
 10
67.6350454018
 20
18.5159580188
 10
67.6273330621
 20
18.5239708393
 10
67.6207224852
 20
18.5324844611
 10
67.6150133505
 20
18.5414988842
 10
67.6104059787
 20
18.5511142688
 10
67.6068002095
 20
18.5611302944
 10
67.6042962031
 20
18.5717472816
 10
67.602693639
 20
18.5827649098
 10
67.6021928377
 20
18.5943834996
 10
67.6021928377
 20
18.5943834996
 10
67.60309428
 20
18.6096078585
 10
67.6058987672
 20
18.6240309355
 10
67.6104059787
 20
18.6375525701
 10
67.6168162352
 20
18.6502729226
 10
67.6248290557
 20
18.6618915124
 10
67.63434428
 20
18.6720076983
 10
67.6453619082
 20
18.6807216406
 10
67.65778178
 20
18.6879331791
 10
67.6724051775
 20
18.6942432752
 10
67.6899332223
 20
18.7002528906
 10
67.7103659146
 20
18.7057617047
 10
67.7337032544
 20
18.7108698778
 10
67.7337032544
 20
18.7108698778
 10
67.7498290557
 20
18.714075006
 10
67.7646527736
 20
18.7171799739
 10
67.7781744082
 20
18.7202849419
 10
67.7903939595
 20
18.7233899098
 10
67.8014115877
 20
18.7262945573
 10
67.8110269723
 20
18.7291992047
 10
67.8194404339
 20
18.7321038521
 10
67.8265518121
 20
18.7349083393
 10
67.8265518121
 20
18.7349083393
 10
67.8265518121
 20
18.7440229226
 10
67.8265518121
 20
18.7440229226
 10
67.82575053
 20
18.7562424739
 10
67.8233466839
 20
18.7664588201
 10
67.8192401134
 20
18.7748722816
 10
67.8135309787
 20
18.7813826983
 10
67.8099252095
 20
18.783986865
 10
67.8056183185
 20
18.7862905508
 10
67.8006103057
 20
18.7881935957
 10
67.7949011711
 20
18.7897961598
 10
67.7883907544
 20
18.7909980829
 10
67.7811792159
 20
18.7918995252
 10
67.7732665557
 20
18.7924003265
 10
67.7646527736
 20
18.792600647
 10
67.7646527736
 20
18.792600647
 10
67.7532345044
 20
18.7919996855
 10
67.7431183185
 20
18.7900966406
 10
67.7343042159
 20
18.7869916726
 10
67.7267921967
 20
18.7825846214
 10
67.72028178
 20
18.7766751662
 10
67.7144724852
 20
18.7689628265
 10
67.7092641518
 20
18.7592472816
 10
67.7047569403
 20
18.7477288521
  0
LWPOLYLINE
  5
145
330
1F
100
AcDbEntity
  8
0
  6
Continuous
 62
     7
100
AcDbPolyline
 90
       44
 70
   128
 43
0.0
 10
67.8265094757
 20
18.6643955188
 10
67.8166359467
 20
18.6613907111
 10
67.8041159146
 20
18.6579852624
 10
67.7890918762
 20
18.6543794932
 10
67.7715638313
 20
18.6504732432
 10
67.7625494082
 20
18.648470038
 10
67.7544364275
 20
18.6464668329
 10
67.7470245685
 20
18.6444636278
 10
67.7405141518
 20
18.6424604226
 10
67.734704857
 20
18.6404572175
 10
67.7297970044
 20
18.6384540124
 10
67.7256904339
 20
18.6365509675
 10
67.7223851454
 20
18.6345477624
 10
67.7223851454
 20
18.6345477624
 10
67.7146728057
 20
18.6278370252
 10
67.7091639916
 20
18.6202248457
 10
67.7058587031
 20
18.6118113842
 10
67.7047569403
 20
18.6024964803
 10
67.7047569403
 20
18.6024964803
 10
67.7056583826
 20
18.5931815765
 10
67.7082625493
 20
18.5845677944
 10
67.7126696005
 20
18.5766551342
 10
67.7188795364
 20
18.5693434355
 10
67.7263915557
 20
18.5632336598
 10
67.7350053377
 20
18.5589267688
 10
67.7444204018
 20
18.5563226021
 10
67.7549372287
 20
18.5554211598
 10
67.7549372287
 20
18.5554211598
 10
67.7669564595
 20
18.5564227624
 10
67.7787753698
 20
18.5595277303
 10
67.7902937993
 20
18.5645357432
 10
67.801511748
 20
18.5716471214
 10
67.801511748
 20
18.5716471214
 10
67.8090237672
 20
18.578157538
 10
67.8150333826
 20
18.5853690765
 10
67.8197409146
 20
18.5931815765
 10
67.8230462031
 20
18.6017953585
 10
67.8230462031
 20
18.6017953585
 10
67.824548607
 20
18.609006897
 10
67.8256503698
 20
18.6188226021
 10
67.8263514916
 20
18.6312424739
 10
67.8265518121
 20
18.6462665124
 10
67.8265518121
 20
18.6462665124
 10
67.8265518121
 20
18.6643955188
  0
LWPOLYLINE
  5
146
330
1F
100
AcDbEntity
  8
0
  6
Continuous
 62
     7
100
AcDbPolyline
 90
        8
 70
   128
 43
0.0
 10
68.031668663
 20
18.4913185957
 10
68.0316800172
 20
18.9913185957
 10
68.0316800172
 20
18.9913185957
 10
68.1342441198
 20
18.9913185957
 10
68.1342441198
 20
18.9913185957
 10
68.1342441198
 20
18.4913185957
 10
68.1342441198
 20
18.4913185957
 10
68.0316800172
 20
18.4913185957
  0
LWPOLYLINE
  5
147
330
1F
100
AcDbEntity
  8
0
  6
Continuous
 62
     7
100
AcDbPolyline
 90
       62
 70
   128
 43
0.0
 10
68.4291124344
 20
18.8567032111
 10
68.5316800172
 20
18.8567032111
 10
68.5316800172
 20
18.8567032111
 10
68.5316800172
 20
18.8040189162
 10
68.5316800172
 20
18.8040189162
 10
68.5410950813
 20
18.8168394291
 10
68.5521127095
 20
18.8283578585
 10
68.5645325813
 20
18.8383738842
 10
68.5785550172
 20
18.8470878265
 10
68.5937793762
 20
18.8540990444
 10
68.609704857
 20
18.8591070573
 10
68.62653178
 20
18.862111865
 10
68.6440598249
 20
18.8631134675
 10
68.6440598249
 20
18.8631134675
 10
68.6594845044
 20
18.8623121855
 10
68.6743082223
 20
18.8600084996
 10
68.6885309787
 20
18.8562024098
 10
68.7021527736
 20
18.850793756
 10
68.715173607
 20
18.843782538
 10
68.7275934787
 20
18.8352689162
 10
68.739412389
 20
18.8252528906
 10
68.7506303377
 20
18.8136343008
 10
68.7609468441
 20
18.8007136278
 10
68.769861107
 20
18.7864908714
 10
68.7773731262
 20
18.7711663521
 10
68.7835830621
 20
18.7545397496
 10
68.7882905941
 20
18.7367112239
 10
68.7917962031
 20
18.7176807752
 10
68.7937994082
 20
18.6974484034
 10
68.79450053
 20
18.6760141085
 10
68.79450053
 20
18.6760141085
 10
68.7937994082
 20
18.6539788521
 10
68.7916960429
 20
18.6332456791
 10
68.7880902736
 20
18.6138145893
 10
68.7831824211
 20
18.5955854226
 10
68.7767721646
 20
18.5785581791
 10
68.7690598249
 20
18.5628330188
 10
68.7598450813
 20
18.5484099419
 10
68.7492280941
 20
18.535188788
 10
68.7376095044
 20
18.5233698778
 10
68.7253899531
 20
18.5131535316
 10
68.7125694403
 20
18.5045397496
 10
68.6991479659
 20
18.4975285316
 10
68.68512553
 20
18.4920197175
 10
68.6706022929
 20
18.4880133073
 10
68.6553779339
 20
18.4857096214
 10
68.6395526134
 20
18.4849083393
 10
68.6395526134
 20
18.4849083393
 10
68.6246287352
 20
18.4856094611
 10
68.6104059787
 20
18.487913147
 10
68.5968843441
 20
18.4915189162
 10
68.5840638313
 20
18.4967272496
 10
68.571443639
 20
18.5037384675
 10
68.5585229659
 20
18.5127528906
 10
68.5453018121
 20
18.5239708393
 10
68.5316800172
 20
18.5372921534
 10
68.5316800172
 20
18.5372921534
 10
68.5316800172
 20
18.3567032111
 10
68.5316800172
 20
18.3567032111
 10
68.4291159146
 20
18.3567032111
 10
68.4291159146
 20
18.3567032111
 10
68.4291159146
 20
18.8567032111
  0
LWPOLYLINE
  5
148
330
1F
100
AcDbEntity
  8
0
  6
Continuous
 62
     7
100
AcDbPolyline
 90
       68
 70
   128
 43
0.0
 10
68.5316324234
 20
18.6802208393
 10
68.5320806582
 20
18.6647961598
 10
68.5331824211
 20
18.6503730829
 10
68.5350854659
 20
18.6370517688
 10
68.5376896326
 20
18.6247320573
 10
68.5410950813
 20
18.6134139483
 10
68.5452016518
 20
18.6031976021
 10
68.5501095044
 20
18.5939828585
 10
68.5557184787
 20
18.5858698778
 10
68.5619284146
 20
18.5787584996
 10
68.5684388313
 20
18.5725485637
 10
68.575349889
 20
18.5673402303
 10
68.5824612672
 20
18.5630333393
 10
68.5899732864
 20
18.5597280508
 10
68.5978859467
 20
18.5573242047
 10
68.6059989275
 20
18.5559219611
 10
68.6145125493
 20
18.5554211598
 10
68.6145125493
 20
18.5554211598
 10
68.62262553
 20
18.5558218008
 10
68.63043803
 20
18.5571238842
 10
68.637849889
 20
18.5593274098
 10
68.6449612672
 20
18.5624323778
 10
68.6516720044
 20
18.5663386278
 10
68.6580822608
 20
18.5711463201
 10
68.6640918762
 20
18.5768554547
 10
68.6698010108
 20
18.5833658714
 10
68.6750093441
 20
18.5909780508
 10
68.6795165557
 20
18.5995918329
 10
68.6833226454
 20
18.609407538
 10
68.6864276134
 20
18.620325006
 10
68.6888314595
 20
18.6323442367
 10
68.6905341839
 20
18.6455653906
 10
68.6916359467
 20
18.659788147
 10
68.6919364275
 20
18.6752128265
 10
68.6919364275
 20
18.6752128265
 10
68.6915357864
 20
18.6896359034
 10
68.6905341839
 20
18.7030573778
 10
68.6887312993
 20
18.7155774098
 10
68.6862272929
 20
18.7270958393
 10
68.6830221646
 20
18.7377128265
 10
68.6791159146
 20
18.7473282111
 10
68.6745085429
 20
18.7559419932
 10
68.6692000493
 20
18.7636543329
 10
68.6633907544
 20
18.7704652303
 10
68.6571808185
 20
18.7762745252
 10
68.6505702416
 20
18.781282538
 10
68.6437593441
 20
18.7853891085
 10
68.6365478057
 20
18.7884940765
 10
68.6289356262
 20
18.7907977624
 10
68.6210229659
 20
18.7920998457
 10
68.6128098249
 20
18.792600647
 10
68.6128098249
 20
18.792600647
 10
68.6042962031
 20
18.792200006
 10
68.5960830621
 20
18.7907977624
 10
68.5882705621
 20
18.7885942367
 10
68.5808587031
 20
18.7854892688
 10
68.5737473249
 20
18.7814828585
 10
68.5670365877
 20
18.7766751662
 10
68.5607264916
 20
18.7708658714
 10
68.5547168762
 20
18.7642552944
 10
68.5493082223
 20
18.7567432752
 10
68.5446006903
 20
18.7483298137
 10
68.5406944403
 20
18.7391150701
 10
68.5374893121
 20
18.7290990444
 10
68.5348851454
 20
18.7181815765
 10
68.5330822608
 20
18.7063626662
 10
68.5320806582
 20
18.6937424739
 10
68.5316800172
 20
18.6802208393
  0
LWPOLYLINE
  5
149
330
1F
100
AcDbEntity
  8
0
  6
Continuous
 62
     7
100
AcDbPolyline
 90
      139
 70
   128
 43
0.0
 10
68.948328495
 20
18.7477288521
 10
68.8586030941
 20
18.760549365
 10
68.8586030941
 20
18.760549365
 10
68.8627096646
 20
18.7731695573
 10
68.8674171967
 20
18.7849884675
 10
68.8728258505
 20
18.7959059355
 10
68.8789356262
 20
18.8060221214
 10
68.8856463634
 20
18.8153370252
 10
68.8930582223
 20
18.8237504867
 10
68.9011712031
 20
18.831262506
 10
68.9098851454
 20
18.8379732432
 10
68.91950053
 20
18.8438826983
 10
68.9303178377
 20
18.8489908714
 10
68.942136748
 20
18.8532977624
 10
68.9550574211
 20
18.8568033714
 10
68.969079857
 20
18.8596078585
 10
68.9843042159
 20
18.8615109034
 10
69.0005301775
 20
18.8627128265
 10
69.0178579018
 20
18.8631134675
 10
69.0178579018
 20
18.8631134675
 10
69.0335830621
 20
18.862913147
 10
69.0483066198
 20
18.8622120252
 10
69.0620285749
 20
18.8610101021
 10
69.0746487672
 20
18.8593073778
 10
69.086267357
 20
18.8572040124
 10
69.0967841839
 20
18.8545998457
 10
69.1062994082
 20
18.8514948778
 10
69.11481303
 20
18.8478891085
 10
69.129636748
 20
18.8397761278
 10
69.1420566198
 20
18.8306615444
 10
69.1520726454
 20
18.8204451983
 10
69.1596848249
 20
18.8092272496
 10
69.1626896326
 20
18.8027168329
 10
69.1653939595
 20
18.7951046534
 10
69.1675974852
 20
18.7860902303
 10
69.16950053
 20
18.7759740444
 10
69.1709027736
 20
18.7645557752
 10
69.1719043762
 20
18.7520357432
 10
69.1725053377
 20
18.7381134675
 10
69.1727056582
 20
18.7230894291
 10
69.1727056582
 20
18.7230894291
 10
69.1727056582
 20
18.6108097816
 10
69.1727056582
 20
18.6108097816
 10
69.1728058185
 20
18.5991911919
 10
69.173006139
 20
18.5883738842
 10
69.1735069403
 20
18.5783578585
 10
69.1741079018
 20
18.569143115
 10
69.1748090236
 20
18.5607296534
 10
69.1757104659
 20
18.5530173137
 10
69.1768122287
 20
18.5462064162
 10
69.1781143121
 20
18.5400966406
 10
69.1814196005
 20
18.5284780508
 10
69.1859268121
 20
18.5165589803
 10
69.1915357864
 20
18.5041391085
 10
69.1983466839
 20
18.4913185957
 10
69.1983466839
 20
18.4913185957
 10
69.0957825813
 20
18.4913185957
 10
69.0957825813
 20
18.4913185957
 10
69.0937793762
 20
18.4971278906
 10
69.0915758505
 20
18.5041391085
 10
69.0890718441
 20
18.5124524098
 10
69.0863675172
 20
18.5219676342
 10
69.0863675172
 20
18.5219676342
 10
69.0852657544
 20
18.526174365
 10
69.0843643121
 20
18.5295798137
 10
69.08356303
 20
18.5322841406
 10
69.0829620685
 20
18.5340870252
 10
69.0829620685
 20
18.5340870252
 10
69.0702417159
 20
18.5225685957
 10
69.0570205621
 20
18.5126527303
 10
69.0433987672
 20
18.5041391085
 10
69.0293763313
 20
18.4972280508
 10
69.0148530941
 20
18.491819397
 10
68.9999292159
 20
18.4880133073
 10
68.9844043762
 20
18.4857096214
 10
68.9684788954
 20
18.4849083393
 10
68.9684788954
 20
18.4849083393
 10
68.95465678
 20
18.4854091406
 10
68.9415357864
 20
18.4868113842
 10
68.9291159146
 20
18.4893153906
 10
68.9174973249
 20
18.4927208393
 10
68.9066800172
 20
18.4970277303
 10
68.8965638313
 20
18.5023362239
 10
68.8872489275
 20
18.5086463201
 10
68.8786351454
 20
18.5159580188
 10
68.8709228057
 20
18.5239708393
 10
68.8643122287
 20
18.5324844611
 10
68.8586030941
 20
18.5414988842
 10
68.8539957223
 20
18.5511142688
 10
68.8503899531
 20
18.5611302944
 10
68.8478859467
 20
18.5717472816
 10
68.8462833826
 20
18.5827649098
 10
68.8457825813
 20
18.5943834996
 10
68.8457825813
 20
18.5943834996
 10
68.8466840236
 20
18.6096078585
 10
68.8494885108
 20
18.6240309355
 10
68.8539957223
 20
18.6375525701
 10
68.8604059787
 20
18.6502729226
 10
68.8684187993
 20
18.6618915124
 10
68.8779340236
 20
18.6720076983
 10
68.8889516518
 20
18.6807216406
 10
68.9013715236
 20
18.6879331791
 10
68.9159949211
 20
18.6942432752
 10
68.9335229659
 20
18.7002528906
 10
68.9539556582
 20
18.7057617047
 10
68.977292998
 20
18.7108698778
 10
68.977292998
 20
18.7108698778
 10
68.9934187993
 20
18.714075006
 10
69.0082425172
 20
18.7171799739
 10
69.0217641518
 20
18.7202849419
 10
69.0339837031
 20
18.7233899098
 10
69.0450013313
 20
18.7262945573
 10
69.0546167159
 20
18.7291992047
 10
69.0630301775
 20
18.7321038521
 10
69.0701415557
 20
18.7349083393
 10
69.0701415557
 20
18.7349083393
 10
69.0701415557
 20
18.7440229226
 10
69.0701415557
 20
18.7440229226
 10
69.0693402736
 20
18.7562424739
 10
69.0669364275
 20
18.7664588201
 10
69.062829857
 20
18.7748722816
 10
69.0571207223
 20
18.7813826983
 10
69.0535149531
 20
18.783986865
 10
69.0492080621
 20
18.7862905508
 10
69.0442000493
 20
18.7881935957
 10
69.0384909146
 20
18.7897961598
 10
69.031980498
 20
18.7909980829
 10
69.0247689595
 20
18.7918995252
 10
69.0168562993
 20
18.7924003265
 10
69.0082425172
 20
18.792600647
 10
69.0082425172
 20
18.792600647
 10
68.996824248
 20
18.7919996855
 10
68.9867080621
 20
18.7900966406
 10
68.9778939595
 20
18.7869916726
 10
68.9703819403
 20
18.7825846214
 10
68.9638715236
 20
18.7766751662
 10
68.9580622287
 20
18.7689628265
 10
68.9528538954
 20
18.7592472816
 10
68.9483466839
 20
18.7477288521
  0
LWPOLYLINE
  5
14A
330
1F
100
AcDbEntity
  8
0
  6
Continuous
 62
     7
100
AcDbPolyline
 90
       44
 70
   128
 43
0.0
 10
69.0701007843
 20
18.6643955188
 10
69.0602256903
 20
18.6613907111
 10
69.0477056582
 20
18.6579852624
 10
69.0326816198
 20
18.6543794932
 10
69.0151535749
 20
18.6504732432
 10
69.0061391518
 20
18.648470038
 10
68.9980261711
 20
18.6464668329
 10
68.9906143121
 20
18.6444636278
 10
68.9841038954
 20
18.6424604226
 10
68.9782946005
 20
18.6404572175
 10
68.973386748
 20
18.6384540124
 10
68.9692801775
 20
18.6365509675
 10
68.965974889
 20
18.6345477624
 10
68.965974889
 20
18.6345477624
 10
68.9582625493
 20
18.6278370252
 10
68.9527537352
 20
18.6202248457
 10
68.9494484467
 20
18.6118113842
 10
68.9483466839
 20
18.6024964803
 10
68.9483466839
 20
18.6024964803
 10
68.9492481262
 20
18.5931815765
 10
68.9518522929
 20
18.5845677944
 10
68.9562593441
 20
18.5766551342
 10
68.96246928
 20
18.5693434355
 10
68.9699812993
 20
18.5632336598
 10
68.9785950813
 20
18.5589267688
 10
68.9880101454
 20
18.5563226021
 10
68.9985269723
 20
18.5554211598
 10
68.9985269723
 20
18.5554211598
 10
69.0105462031
 20
18.5564227624
 10
69.0223651134
 20
18.5595277303
 10
69.0338835429
 20
18.5645357432
 10
69.0451014916
 20
18.5716471214
 10
69.0451014916
 20
18.5716471214
 10
69.0526135108
 20
18.578157538
 10
69.0586231262
 20
18.5853690765
 10
69.0633306582
 20
18.5931815765
 10
69.0666359467
 20
18.6017953585
 10
69.0666359467
 20
18.6017953585
 10
69.0681383505
 20
18.609006897
 10
69.0692401134
 20
18.6188226021
 10
69.0699412352
 20
18.6312424739
 10
69.0701415557
 20
18.6462665124
 10
69.0701415557
 20
18.6462665124
 10
69.0701415557
 20
18.6643955188
  0
LWPOLYLINE
  5
14B
330
1F
100
AcDbEntity
  8
0
  6
Continuous
 62
     7
100
AcDbPolyline
 90
       76
 70
   128
 43
0.0
 10
69.6150064468
 20
18.4913185957
 10
69.512449248
 20
18.4913185957
 10
69.512449248
 20
18.4913185957
 10
69.512449248
 20
18.6788185957
 10
69.512449248
 20
18.6788185957
 10
69.5123490877
 20
18.6930413521
 10
69.512048607
 20
18.7059620252
 10
69.5116479659
 20
18.7174804547
 10
69.5109468441
 20
18.7277969611
 10
69.5101455621
 20
18.7367112239
 10
69.5090437993
 20
18.7444235637
 10
69.5078418762
 20
18.7507336598
 10
69.5064396326
 20
18.7557416726
 10
69.5030341839
 20
18.7640549739
 10
69.4986271326
 20
18.7712665124
 10
69.493318639
 20
18.7775766085
 10
69.4871087031
 20
18.7828851021
 10
69.4800974852
 20
18.7870918329
 10
69.4722849852
 20
18.7901968008
 10
69.4638715236
 20
18.7919996855
 10
69.4547569403
 20
18.792600647
 10
69.4547569403
 20
18.792600647
 10
69.44293803
 20
18.7916992047
 10
69.4318202416
 20
18.7891951983
 10
69.4212032544
 20
18.784788147
 10
69.411287389
 20
18.7787785316
 10
69.4024732864
 20
18.7712665124
 10
69.3950614275
 20
18.7627528906
 10
69.3892521326
 20
18.7529371855
 10
69.3849452416
 20
18.7421198778
 10
69.3832425172
 20
18.7358097816
 10
69.3818402736
 20
18.7282977624
 10
69.3806383505
 20
18.7195838201
 10
69.379636748
 20
18.7095677944
 10
69.3788354659
 20
18.698450006
 10
69.3782345044
 20
18.6860301342
 10
69.3779340236
 20
18.6725084996
 10
69.3778338634
 20
18.6576847816
 10
69.3778338634
 20
18.6576847816
 10
69.3778338634
 20
18.4913185957
 10
69.3778338634
 20
18.4913185957
 10
69.2752697608
 20
18.4913185957
 10
69.2752697608
 20
18.4913185957
 10
69.2752697608
 20
18.8567032111
 10
69.2752697608
 20
18.8567032111
 10
69.3778338634
 20
18.8567032111
 10
69.3778338634
 20
18.8567032111
 10
69.3778338634
 20
18.8040189162
 10
69.3778338634
 20
18.8040189162
 10
69.3898530941
 20
18.8178410316
 10
69.402673607
 20
18.8298602624
 10
69.4161952416
 20
18.8400766085
 10
69.4305181582
 20
18.8483899098
 10
69.4455421967
 20
18.8548001662
 10
69.4613675172
 20
18.859407538
 10
69.4778939595
 20
18.8622120252
 10
69.4952216839
 20
18.8631134675
 10
69.4952216839
 20
18.8631134675
 10
69.5105462031
 20
18.8624123457
 10
69.5251696005
 20
18.8602088201
 10
69.5390918762
 20
18.8566030508
 10
69.55231303
 20
18.851595038
 10
69.5644324211
 20
18.8454852624
 10
69.5750494082
 20
18.8385742047
 10
69.5839636711
 20
18.830861865
 10
69.59137553
 20
18.8223482432
 10
69.5974853057
 20
18.8131334996
 10
69.6025934787
 20
18.8034179547
 10
69.6067000493
 20
18.793001288
 10
69.6098050172
 20
18.7819836598
 10
69.6121087031
 20
18.7694636278
 10
69.6137112672
 20
18.7545397496
 10
69.6147128698
 20
18.737111865
 10
69.6150133505
 20
18.7172801342
 10
69.6150133505
 20
18.7172801342
 10
69.6150133505
 20
18.4913185957
  0
LWPOLYLINE
  5
14C
330
1F
100
AcDbEntity
  8
0
  6
Continuous
 62
     7
100
AcDbPolyline
 90
       99
 70
   128
 43
0.0
 10
69.9355006218
 20
18.6067032111
 10
70.0380902736
 20
18.5938826983
 10
70.0380902736
 20
18.5938826983
 10
70.0329821005
 20
18.5809620252
 10
70.0271728057
 20
18.5688426342
 10
70.020662389
 20
18.5575245252
 10
70.0134508505
 20
18.5470076983
 10
70.0055381903
 20
18.5371919932
 10
69.9969244082
 20
18.5282777303
 10
69.9877096646
 20
18.5200645893
 10
69.977693639
 20
18.5127528906
 10
69.9670766518
 20
18.5062424739
 10
69.9557585429
 20
18.5005333393
 10
69.9438394723
 20
18.4958258073
 10
69.93121928
 20
18.4919195573
 10
69.9179981262
 20
18.4888145893
 10
69.9041760108
 20
18.4866110637
 10
69.8896527736
 20
18.4853089803
 10
69.8744284146
 20
18.4849083393
 10
69.8744284146
 20
18.4849083393
 10
69.8506904339
 20
18.4859099419
 10
69.8285550172
 20
18.4888145893
 10
69.8080221646
 20
18.4936222816
 10
69.7889917159
 20
18.5003330188
 10
69.7716639916
 20
18.5090469611
 10
69.7558386711
 20
18.5196639483
 10
69.7417160749
 20
18.5321839803
 10
69.7290958826
 20
18.5466070573
 10
69.7290958826
 20
18.5466070573
 10
69.7203819403
 20
18.5593274098
 10
69.7128699211
 20
18.5729492047
 10
69.7064596646
 20
18.5872721214
 10
69.7012513313
 20
18.6024964803
 10
69.6971447608
 20
18.6184219611
 10
69.6942401134
 20
18.6352488842
 10
69.692537389
 20
18.6528770893
 10
69.6919364275
 20
18.6713065765
 10
69.6919364275
 20
18.6713065765
 10
69.6927377095
 20
18.6931415124
 10
69.6950413954
 20
18.7138746855
 10
69.6988474852
 20
18.7333057752
 10
69.7041559787
 20
18.7515349419
 10
69.7110670364
 20
18.7684620252
 10
69.719480498
 20
18.7842873457
 10
69.7293963634
 20
18.7988105829
 10
69.7409147929
 20
18.812131897
 10
69.7536351454
 20
18.8240509675
 10
69.7670566198
 20
18.8344676342
 10
69.7813795364
 20
18.8431815765
 10
69.7965037352
 20
18.850393115
 10
69.8124292159
 20
18.8559019291
 10
69.8291559787
 20
18.8599083393
 10
69.8466840236
 20
18.8623121855
 10
69.8650133505
 20
18.8631134675
 10
69.8650133505
 20
18.8631134675
 10
69.8855462031
 20
18.8623121855
 10
69.9048771326
 20
18.8598081791
 10
69.9232064595
 20
18.8556014483
 10
69.9403338634
 20
18.8496919932
 10
69.9564596646
 20
18.8421799739
 10
69.9713835429
 20
18.8329652303
 10
69.9852056582
 20
18.8220477624
 10
69.9979260108
 20
18.8094275701
 10
70.00934428
 20
18.7951046534
 10
70.0190598249
 20
18.7790790124
 10
70.0272729659
 20
18.7612504867
 10
70.0338835429
 20
18.7416190765
 10
70.0388915557
 20
18.7201847816
 10
70.0423971646
 20
18.6969476021
 10
70.0442000493
 20
18.671907538
 10
70.04450053
 20
18.6451647496
 10
70.04450053
 20
18.6451647496
 10
69.79450053
 20
18.6451647496
 10
69.79450053
 20
18.6451647496
 10
69.7951014916
 20
18.6348482432
 10
69.7963034146
 20
18.6251326983
 10
69.7983066198
 20
18.6159179547
 10
69.8009107864
 20
18.6074043329
 10
69.8041159146
 20
18.5993915124
 10
69.8080221646
 20
18.5920798137
 10
69.8126295364
 20
18.5852689162
 10
69.81793803
 20
18.5790589803
 10
69.8237473249
 20
18.5735501662
 10
69.8298571005
 20
18.5687424739
 10
69.836267357
 20
18.5646359034
 10
69.8431784146
 20
18.561330615
 10
69.8502897929
 20
18.5587264483
 10
69.8578018121
 20
18.5569235637
 10
69.8656143121
 20
18.5558218008
 10
69.8738274531
 20
18.5554211598
 10
69.8738274531
 20
18.5554211598
 10
69.8847449211
 20
18.5562224419
 10
69.8947609467
 20
18.5584259675
 10
69.90387553
 20
18.5622320573
 10
69.9120886711
 20
18.5675405508
 10
69.9194003698
 20
18.5745517688
 10
69.9257104659
 20
18.5834660316
 10
69.9311191198
 20
18.5941831791
 10
69.9355261711
 20
18.6067032111
  0
LWPOLYLINE
  5
14D
330
1F
100
AcDbEntity
  8
0
  6
Continuous
 62
     7
100
AcDbPolyline
 90
       37
 70
   128
 43
0.0
 10
69.9418783188
 20
18.7028570573
 10
69.9413354659
 20
18.7134740444
 10
69.9402337031
 20
18.7234900701
 10
69.9384308185
 20
18.7329051342
 10
69.9360269723
 20
18.7415189162
 10
69.9329220044
 20
18.7495317367
 10
69.9293162352
 20
18.7569435957
 10
69.9250093441
 20
18.7636543329
 10
69.9201014916
 20
18.7696639483
 10
69.914792998
 20
18.7750726021
 10
69.9090838634
 20
18.7796799739
 10
69.9031744082
 20
18.7836863842
 10
69.8970646326
 20
18.7868915124
 10
69.8905542159
 20
18.7893955188
 10
69.8837433185
 20
18.7911984034
 10
69.8767321005
 20
18.792200006
 10
69.8694204018
 20
18.792600647
 10
69.8694204018
 20
18.792600647
 10
69.8616079018
 20
18.792200006
 10
69.8540958826
 20
18.7910982432
 10
69.8469845044
 20
18.7891951983
 10
69.8402737672
 20
18.7865910316
 10
69.8338635108
 20
18.7831855829
 10
69.8277537352
 20
18.7789788521
 10
69.8220446005
 20
18.7740709996
 10
69.8166359467
 20
18.7684620252
 10
69.8166359467
 20
18.7684620252
 10
69.8118282544
 20
18.7621519291
 10
69.8076215236
 20
18.7553410316
 10
69.8040157544
 20
18.7479291726
 10
69.8012112672
 20
18.7400165124
 10
69.7989075813
 20
18.7315028906
 10
69.7974051775
 20
18.7224884675
 10
69.7965037352
 20
18.7129732432
 10
69.7962032544
 20
18.7028570573
 10
69.7962032544
 20
18.7028570573
 10
69.9419364275
 20
18.7028570573
  0
LWPOLYLINE
  5
14E
330
1F
100
AcDbEntity
  8
0
  6
Continuous
 62
     7
100
AcDbPolyline
 90
        8
 70
   128
 43
0.0
 10
70.1214075089
 20
18.4913185957
 10
70.121423607
 20
18.9913185957
 10
70.121423607
 20
18.9913185957
 10
70.2239877095
 20
18.9913185957
 10
70.2239877095
 20
18.9913185957
 10
70.2239877095
 20
18.4913185957
 10
70.2239877095
 20
18.4913185957
 10
70.121423607
 20
18.4913185957
  0
LWPOLYLINE
  5
14F
330
1F
100
AcDbEntity
  8
0
  6
Continuous
 62
     7
100
AcDbPolyline
 90
       28
 70
   128
 43
0.0
 10
74.5558738708
 20
22.2572952429
 10
74.5238373932
 20
22.2572952429
 10
74.5238373932
 20
22.2572952429
 10
74.5238373932
 20
22.4521069416
 10
74.5238373932
 20
22.4521069416
 10
74.5176274573
 20
22.4468485281
 10
74.5104659989
 20
22.4415901147
 10
74.5024531784
 20
22.4362816211
 10
74.4934888355
 20
22.4310232076
 10
74.484324172
 20
22.426115355
 10
74.4756603098
 20
22.421808464
 10
74.4674471688
 20
22.4182026948
 10
74.4597348291
 20
22.4152479672
 10
74.4597348291
 20
22.4152479672
 10
74.4597348291
 20
22.4447952429
 10
74.4597348291
 20
22.4447952429
 10
74.4727556624
 20
22.4511554191
 10
74.4849251336
 20
22.458116557
 10
74.4962933227
 20
22.4657287364
 10
74.5067600695
 20
22.4739919576
 10
74.5160749733
 20
22.4825055794
 10
74.5239375534
 20
22.4909190409
 10
74.5303478098
 20
22.4991822621
 10
74.5352556624
 20
22.5072952429
 10
74.5352556624
 20
22.5072952429
 10
74.5558886752
 20
22.5072952429
 10
74.5558886752
 20
22.5072952429
 10
74.5558886752
 20
22.2572952429
  0
LWPOLYLINE
  5
150
330
1F
100
AcDbEntity
  8
0
  6
Continuous
 62
     7
100
AcDbPolyline
 90
      141
 70
   128
 43
0.0
 10
74.805855751
 20
22.4431926788
 10
74.7738373932
 20
22.4399875505
 10
74.7738373932
 20
22.4399875505
 10
74.7713834669
 20
22.4482006916
 10
74.7684287393
 20
22.4552119095
 10
74.7650232906
 20
22.4610212044
 10
74.7611671207
 20
22.4656285762
 10
74.7611671207
 20
22.4656285762
 10
74.7576615118
 20
22.4686333839
 10
74.7539555823
 20
22.4712375505
 10
74.7500493323
 20
22.4734410762
 10
74.7459427618
 20
22.4752439608
 10
74.7416358707
 20
22.4766462044
 10
74.7371787393
 20
22.477647807
 10
74.7324712073
 20
22.4782487685
 10
74.7275633547
 20
22.478449089
 10
74.7275633547
 20
22.478449089
 10
74.7197007746
 20
22.4779983679
 10
74.7120885951
 20
22.4765961243
 10
74.7047768964
 20
22.4742924384
 10
74.6977656784
 20
22.47103723
 10
74.6977656784
 20
22.47103723
 10
74.690954781
 20
22.4656786563
 10
74.6847949252
 20
22.4592183198
 10
74.6792861111
 20
22.4516562204
 10
74.6743782586
 20
22.4429923582
 10
74.672224813
 20
22.4381345858
 10
74.6703718483
 20
22.4326758518
 10
74.6687692842
 20
22.4266161563
 10
74.6674171207
 20
22.4200055794
 10
74.666365438
 20
22.4128441211
 10
74.6656142361
 20
22.4050817012
 10
74.6651134348
 20
22.3967183198
 10
74.6648630342
 20
22.387804057
 10
74.6648630342
 20
22.387804057
 10
74.6711230502
 20
22.395616557
 10
74.678084188
 20
22.4023773743
 10
74.6856462874
 20
22.4080364288
 10
74.6939095086
 20
22.4126438005
 10
74.7026234509
 20
22.4161994897
 10
74.7114876336
 20
22.4187535762
 10
74.7206022169
 20
22.42025598
 10
74.7299171207
 20
22.4207567813
 10
74.7299171207
 20
22.4207567813
 10
74.7379800214
 20
22.4204062204
 10
74.7457925214
 20
22.4193545377
 10
74.7532544605
 20
22.4175516531
 10
74.7604159188
 20
22.4150977268
 10
74.7672768964
 20
22.4118925986
 10
74.773787313
 20
22.4080364288
 10
74.7800473291
 20
22.403429057
 10
74.7859567842
 20
22.3981205634
 10
74.791365438
 20
22.3922611884
 10
74.7960729701
 20
22.3860011723
 10
74.8000793804
 20
22.3792904352
 10
74.8033345887
 20
22.372179057
 10
74.8058385951
 20
22.3646670377
 10
74.8076414797
 20
22.3567543775
 10
74.8087432425
 20
22.3483909961
 10
74.8090938034
 20
22.3396269736
 10
74.8090938034
 20
22.3396269736
 10
74.8083926816
 20
22.328058464
 10
74.8063894765
 20
22.3169406755
 10
74.8029840278
 20
22.306173448
 10
74.7982264156
 20
22.2958569416
 10
74.7953718483
 20
22.290949089
 10
74.7923169605
 20
22.2863417172
 10
74.7889615919
 20
22.2820348262
 10
74.7854059028
 20
22.2779783358
 10
74.7815497329
 20
22.2742724063
 10
74.7774431624
 20
22.2708168775
 10
74.7730861913
 20
22.2677119095
 10
74.7684788195
 20
22.2648573422
 10
74.7636711271
 20
22.2623533358
 10
74.7587131945
 20
22.2601498102
 10
74.7535549413
 20
22.2582968454
 10
74.7482965278
 20
22.2567944416
 10
74.7428377938
 20
22.2555925185
 10
74.7372288195
 20
22.2547411563
 10
74.7314195246
 20
22.254240355
 10
74.7255100695
 20
22.2540901147
 10
74.7255100695
 20
22.2540901147
 10
74.7154940438
 20
22.2545408358
 10
74.7059788195
 20
22.2558429191
 10
74.6969143163
 20
22.2580464448
 10
74.6883005342
 20
22.2611013326
 10
74.6801875534
 20
22.2650075826
 10
74.6725252938
 20
22.2698152749
 10
74.6653638355
 20
22.2755244095
 10
74.6586530983
 20
22.2820849063
 10
74.6525934028
 20
22.2896470057
 10
74.6473349893
 20
22.298360948
 10
74.642927938
 20
22.3081766531
 10
74.6392720887
 20
22.3191442012
 10
74.6364676015
 20
22.3312635922
 10
74.6344143163
 20
22.3444847461
 10
74.6332123932
 20
22.3588577429
 10
74.6328117521
 20
22.3743325025
 10
74.6328117521
 20
22.3743325025
 10
74.6329119124
 20
22.383146605
 10
74.6332624733
 20
22.391710307
 10
74.6338133547
 20
22.399923448
 10
74.6346146368
 20
22.4078361082
 10
74.6356162393
 20
22.4154482877
 10
74.6368682425
 20
22.4227599864
 10
74.6383205663
 20
22.4297211243
 10
74.6400232906
 20
22.4364318614
 10
74.6419263355
 20
22.4427920377
 10
74.644079781
 20
22.4489018134
 10
74.646433547
 20
22.4546610281
 10
74.6490377137
 20
22.4601197621
 10
74.6518422009
 20
22.4652780153
 10
74.6548970887
 20
22.4701357877
 10
74.658152297
 20
22.4746429993
 10
74.661657906
 20
22.4788998102
 10
74.661657906
 20
22.4788998102
 10
74.6682184028
 20
22.4855604672
 10
74.675329781
 20
22.491319682
 10
74.6829920406
 20
22.4962275345
 10
74.6912051816
 20
22.5001838647
 10
74.6999692041
 20
22.5032888326
 10
74.7092340278
 20
22.5055424384
 10
74.719099813
 20
22.5068445217
 10
74.7294663996
 20
22.5072952429
 10
74.7294663996
 20
22.5072952429
 10
74.7372288195
 20
22.5070448422
 10
74.7446406784
 20
22.5062435602
 10
74.7516518964
 20
22.5048913967
 10
74.7583626336
 20
22.503038432
 10
74.7646727297
 20
22.5006345858
 10
74.770632265
 20
22.4977299384
 10
74.7762412393
 20
22.4942744095
 10
74.7814996528
 20
22.4902679993
 10
74.7863073451
 20
22.4858108679
 10
74.7906643163
 20
22.4809530954
 10
74.794470406
 20
22.4756446018
 10
74.7977756945
 20
22.4699855473
 10
74.8005801816
 20
22.4638757717
 10
74.8028337874
 20
22.4574154352
 10
74.804636672
 20
22.4505043775
 10
74.8058886752
 20
22.4431926788
  0
LWPOLYLINE
  5
151
330
1F
100
AcDbEntity
  8
0
  6
Continuous
 62
     7
100
AcDbPolyline
 90
       64
 70
   128
 43
0.0
 10
74.6648311615
 20
22.3402780153
 10
74.6653638355
 20
22.3327659961
 10
74.6667660791
 20
22.3254542973
 10
74.6691699252
 20
22.3182427589
 10
74.6725252938
 20
22.3112315409
 10
74.6767320246
 20
22.3047211243
 10
74.6815397169
 20
22.2990620698
 10
74.687048531
 20
22.2942042973
 10
74.6932083868
 20
22.290147807
 10
74.6999692041
 20
22.2869927589
 10
74.7071807425
 20
22.2847391531
 10
74.7148430021
 20
22.2833869897
 10
74.723006063
 20
22.2829362685
 10
74.723006063
 20
22.2829362685
 10
74.7288153579
 20
22.2831866691
 10
74.734324172
 20
22.2838877909
 10
74.7395825855
 20
22.2850396339
 10
74.7445905983
 20
22.2866922781
 10
74.7492981304
 20
22.2887956435
 10
74.7537552618
 20
22.29134973
 10
74.7579619925
 20
22.2944046179
 10
74.7618682425
 20
22.2979102268
 10
74.7654239316
 20
22.3018164768
 10
74.7685288996
 20
22.3060732877
 10
74.7711330663
 20
22.3106305794
 10
74.7732364316
 20
22.3155885121
 10
74.7748890759
 20
22.3208469255
 10
74.7760909989
 20
22.3264058198
 10
74.7767921207
 20
22.332365355
 10
74.7770425214
 20
22.3386253711
 10
74.7770425214
 20
22.3386253711
 10
74.7767921207
 20
22.3446349864
 10
74.7760909989
 20
22.3503441211
 10
74.774939156
 20
22.3557527749
 10
74.7732865118
 20
22.3607607877
 10
74.7711831464
 20
22.3654683198
 10
74.7686290598
 20
22.3698753711
 10
74.765574172
 20
22.3739318614
 10
74.762068563
 20
22.3776377909
 10
74.758162313
 20
22.3809931595
 10
74.7539555823
 20
22.383897807
 10
74.7493982906
 20
22.3863517332
 10
74.744490438
 20
22.3883549384
 10
74.7392821047
 20
22.3899074223
 10
74.7337232105
 20
22.3910091852
 10
74.7278638355
 20
22.391710307
 10
74.7216538996
 20
22.3919106275
 10
74.7216538996
 20
22.3919106275
 10
74.7158446047
 20
22.391710307
 10
74.7102356304
 20
22.3910091852
 10
74.7048770566
 20
22.3899074223
 10
74.6997188034
 20
22.3883549384
 10
74.6948109509
 20
22.3863517332
 10
74.6901034188
 20
22.383897807
 10
74.6856462874
 20
22.3809931595
 10
74.6813894765
 20
22.3776377909
 10
74.6775333066
 20
22.3739318614
 10
74.674177938
 20
22.3699755313
 10
74.6713233707
 20
22.3657187204
 10
74.6690196848
 20
22.3612115089
 10
74.6671667201
 20
22.3563537364
 10
74.6659147169
 20
22.3512956435
 10
74.6651134348
 20
22.3459370698
 10
74.6648630342
 20
22.3402780153
  0
LWPOLYLINE
  5
152
330
1F
100
AcDbEntity
  8
0
  6
Continuous
 62
     7
100
AcDbPolyline
 90
      124
 70
   128
 43
0.0
 10
74.8893022537
 20
22.3944146339
 10
74.8845645566
 20
22.3962175185
 10
74.8801575054
 20
22.3982207236
 10
74.8760509348
 20
22.4003741691
 10
74.8722448451
 20
22.4027279352
 10
74.8687392361
 20
22.4052820217
 10
74.865584188
 20
22.4079863486
 10
74.8627296207
 20
22.4108909961
 10
74.8602256143
 20
22.4139458839
 10
74.8560689637
 20
22.4206065409
 10
74.8531142361
 20
22.4278681595
 10
74.8513614316
 20
22.4357307397
 10
74.8507604701
 20
22.4442443614
 10
74.8507604701
 20
22.4442443614
 10
74.8510609509
 20
22.4508048582
 10
74.8520625534
 20
22.4570648743
 10
74.8536150374
 20
22.4630744897
 10
74.8558686432
 20
22.4688337044
 10
74.8587232105
 20
22.4742924384
 10
74.8622788996
 20
22.4795007717
 10
74.8663854701
 20
22.4844587044
 10
74.8711931624
 20
22.4891161563
 10
74.876501656
 20
22.4933729672
 10
74.8822608707
 20
22.4970788967
 10
74.8884708066
 20
22.5001838647
 10
74.8950313034
 20
22.5027379512
 10
74.9020425214
 20
22.5047411563
 10
74.9095044605
 20
22.5061433999
 10
74.9173670406
 20
22.5069947621
 10
74.9256302618
 20
22.5072952429
 10
74.9256302618
 20
22.5072952429
 10
74.933943563
 20
22.5069947621
 10
74.9418562233
 20
22.5061433999
 10
74.9493682425
 20
22.5046910762
 10
74.9564295406
 20
22.5026377909
 10
74.9630901977
 20
22.5000336243
 10
74.9693502137
 20
22.4968284961
 10
74.9751595086
 20
22.4930724864
 10
74.9805681624
 20
22.4887155153
 10
74.985476015
 20
22.4839579031
 10
74.9896827457
 20
22.4788998102
 10
74.993288515
 20
22.4736413967
 10
74.9961931624
 20
22.4681325826
 10
74.9984968483
 20
22.4623232877
 10
75.0000994124
 20
22.4562635922
 10
75.001101015
 20
22.4500035762
 10
75.0014014957
 20
22.4434430794
 10
75.0014014957
 20
22.4434430794
 10
75.0008005342
 20
22.4352299384
 10
74.9990477297
 20
22.4275175986
 10
74.9961430823
 20
22.4204062204
 10
74.9920365118
 20
22.4138457236
 10
74.9867780983
 20
22.4079362685
 10
74.9803177618
 20
22.4027279352
 10
74.972605422
 20
22.3982207236
 10
74.9637412393
 20
22.3944146339
 10
74.9637412393
 20
22.3944146339
 10
74.9693502137
 20
22.3924114288
 10
74.9746086271
 20
22.3900576627
 10
74.9795164797
 20
22.3874534961
 10
74.9841238515
 20
22.3845989288
 10
74.9883305823
 20
22.3813938005
 10
74.9922368323
 20
22.3779382717
 10
74.9957424413
 20
22.3741822621
 10
74.9989475695
 20
22.3701257717
 10
75.0017520566
 20
22.3658188807
 10
75.0042059829
 20
22.3613116691
 10
75.0063093483
 20
22.3566041371
 10
75.0080120727
 20
22.3517463647
 10
75.009314156
 20
22.3465881114
 10
75.0102656784
 20
22.3412796179
 10
75.0108165598
 20
22.3357708038
 10
75.0110168804
 20
22.3300616691
 10
75.0110168804
 20
22.3300616691
 10
75.0106663195
 20
22.322199089
 10
75.0095645566
 20
22.3146369897
 10
75.0077115919
 20
22.3073753711
 10
75.0051575054
 20
22.3004643134
 10
75.001902297
 20
22.2938537364
 10
74.9978458066
 20
22.2875937204
 10
74.9930881945
 20
22.2816341852
 10
74.9876294605
 20
22.2759751307
 10
74.981569765
 20
22.2708669576
 10
74.9750092682
 20
22.2664098262
 10
74.9679980502
 20
22.2626538166
 10
74.9605361111
 20
22.2595488486
 10
74.9526234509
 20
22.2571450025
 10
74.9442600695
 20
22.2554422781
 10
74.9353958868
 20
22.2544406755
 10
74.9260809829
 20
22.2540901147
 10
74.9260809829
 20
22.2540901147
 10
74.9167660791
 20
22.2544406755
 10
74.9079018964
 20
22.2554422781
 10
74.899538515
 20
22.2571950826
 10
74.8916258547
 20
22.2595989288
 10
74.8841639156
 20
22.2626538166
 10
74.8771526977
 20
22.2664599063
 10
74.8705922009
 20
22.2709170377
 10
74.8645325054
 20
22.2760752909
 10
74.8590737714
 20
22.2817343454
 10
74.8543161592
 20
22.2877439608
 10
74.8502596688
 20
22.2941041371
 10
74.8470044605
 20
22.3007647941
 10
74.8444503739
 20
22.3078260922
 10
74.8425974092
 20
22.3151878711
 10
74.8414956464
 20
22.3228501307
 10
74.8411450855
 20
22.3309130313
 10
74.8411450855
 20
22.3309130313
 10
74.841345406
 20
22.3369226467
 10
74.8419463675
 20
22.3426818614
 10
74.84289789
 20
22.3481405954
 10
74.8443001336
 20
22.3533990089
 10
74.846052938
 20
22.3584070217
 10
74.8482063836
 20
22.3631646339
 10
74.85071039
 20
22.3676217653
 10
74.8536651175
 20
22.3718785762
 10
74.856970406
 20
22.3758349063
 10
74.8605761752
 20
22.3794907557
 10
74.8645325054
 20
22.3827960441
 10
74.8688393964
 20
22.3858008518
 10
74.8734467682
 20
22.3884050185
 10
74.8784047009
 20
22.3907587845
 10
74.8837131945
 20
22.3927619897
 10
74.8893221688
 20
22.3944146339
  0
LWPOLYLINE
  5
153
330
1F
100
AcDbEntity
  8
0
  6
Continuous
 62
     7
100
AcDbPolyline
 90
       68
 70
   128
 43
0.0
 10
74.8828053474
 20
22.4440941211
 10
74.8830120727
 20
22.4401878711
 10
74.8835128739
 20
22.4364819416
 10
74.8844143163
 20
22.4329763326
 10
74.8856663195
 20
22.429620964
 10
74.8872188034
 20
22.4264659159
 10
74.8891719284
 20
22.4234611082
 10
74.8914756143
 20
22.4206566211
 10
74.8941298611
 20
22.4180524544
 10
74.8971346688
 20
22.4156986884
 10
74.9003898771
 20
22.4136454031
 10
74.9039956464
 20
22.4118925986
 10
74.9078518163
 20
22.410490355
 10
74.912058547
 20
22.4093385121
 10
74.9165657586
 20
22.4085873102
 10
74.9213233707
 20
22.4080865089
 10
74.9264315438
 20
22.4079362685
 10
74.9264315438
 20
22.4079362685
 10
74.9313894765
 20
22.4080865089
 10
74.9360970086
 20
22.4085873102
 10
74.9404539797
 20
22.4093385121
 10
74.9445605502
 20
22.4104402749
 10
74.94836664
 20
22.4118425185
 10
74.9519223291
 20
22.413595323
 10
74.9551274573
 20
22.4155985281
 10
74.9580821848
 20
22.4179522941
 10
74.9607364316
 20
22.4205564608
 10
74.9629900374
 20
22.4232607877
 10
74.9649431624
 20
22.426115355
 10
74.9665457265
 20
22.4291702429
 10
74.9677476496
 20
22.4322752108
 10
74.9686490919
 20
22.4355804993
 10
74.9691498932
 20
22.4390360281
 10
74.9693502137
 20
22.4425917172
 10
74.9693502137
 20
22.4425917172
 10
74.9691498932
 20
22.4462976467
 10
74.9686490919
 20
22.4498533358
 10
74.9676975695
 20
22.4533088647
 10
74.9664455663
 20
22.456564073
 10
74.964792922
 20
22.4596690409
 10
74.962839797
 20
22.4626237685
 10
74.9604359509
 20
22.4654282557
 10
74.9577316239
 20
22.4680825025
 10
74.9547268163
 20
22.4705364288
 10
74.9514215278
 20
22.4726397941
 10
74.9478658387
 20
22.4743925986
 10
74.9440597489
 20
22.4758449223
 10
74.9399531784
 20
22.4769967653
 10
74.9355962073
 20
22.4777980473
 10
74.9309888355
 20
22.4782988486
 10
74.9260809829
 20
22.478449089
 10
74.9260809829
 20
22.478449089
 10
74.9211731304
 20
22.4782988486
 10
74.9165156784
 20
22.4777980473
 10
74.9121086271
 20
22.4770468454
 10
74.9080521368
 20
22.4759450826
 10
74.9041959669
 20
22.4744927589
 10
74.9006402778
 20
22.4727399544
 10
74.8973349893
 20
22.4706866691
 10
74.8943301816
 20
22.4683329031
 10
74.8916258547
 20
22.4657287364
 10
74.8892720887
 20
22.4630244095
 10
74.8873189637
 20
22.4601698422
 10
74.8857163996
 20
22.4572151147
 10
74.8844143163
 20
22.4541101467
 10
74.8835128739
 20
22.4509050185
 10
74.8830120727
 20
22.4475496499
 10
74.8828117521
 20
22.4440941211
  0
LWPOLYLINE
  5
154
330
1F
100
AcDbEntity
  8
0
  6
Continuous
 62
     7
100
AcDbPolyline
 90
       64
 70
   128
 43
0.0
 10
74.873149395
 20
22.3315139929
 10
74.8735469284
 20
22.3253541371
 10
74.8745986111
 20
22.3192443614
 10
74.8764014957
 20
22.3132848262
 10
74.878855422
 20
22.3073753711
 10
74.8821607105
 20
22.301866557
 10
74.8865176816
 20
22.2970087845
 10
74.8917760951
 20
22.2928521339
 10
74.8980861913
 20
22.2892964448
 10
74.9049471688
 20
22.2864919576
 10
74.9119583868
 20
22.2845388326
 10
74.919069765
 20
22.2833369095
 10
74.9263313836
 20
22.2829362685
 10
74.9263313836
 20
22.2829362685
 10
74.9322909188
 20
22.283136589
 10
74.9379499733
 20
22.2837876307
 10
74.9432584669
 20
22.2848393134
 10
74.9482163996
 20
22.2862916371
 10
74.9528738515
 20
22.288194682
 10
74.9572308227
 20
22.2904983679
 10
74.9612372329
 20
22.2932026948
 10
74.9648930823
 20
22.2963577429
 10
74.9681983707
 20
22.2998633518
 10
74.971052938
 20
22.3035692813
 10
74.9734567842
 20
22.3074755313
 10
74.9754599893
 20
22.311632182
 10
74.9769623932
 20
22.3160392332
 10
74.978064156
 20
22.320646605
 10
74.9787652778
 20
22.3254542973
 10
74.9789655983
 20
22.3305123903
 10
74.9789655983
 20
22.3305123903
 10
74.9787151977
 20
22.3356706435
 10
74.978064156
 20
22.3405784961
 10
74.976912313
 20
22.3452860281
 10
74.9753598291
 20
22.3497431595
 10
74.9733065438
 20
22.3539999704
 10
74.9708025374
 20
22.3580063807
 10
74.9678478098
 20
22.3617623903
 10
74.9644423611
 20
22.3653180794
 10
74.9606362714
 20
22.3685232076
 10
74.9565297009
 20
22.3713276948
 10
74.9521226496
 20
22.3737315409
 10
74.9474151175
 20
22.3756345858
 10
74.9423570246
 20
22.3771369897
 10
74.9369483707
 20
22.3782387525
 10
74.9312893163
 20
22.3788897941
 10
74.9252797009
 20
22.3790901147
 10
74.9252797009
 20
22.3790901147
 10
74.9194203259
 20
22.3788897941
 10
74.9138614316
 20
22.3782387525
 10
74.9086530983
 20
22.3771870698
 10
74.9036951656
 20
22.3756846659
 10
74.8990877938
 20
22.3737816211
 10
74.8948309829
 20
22.371427855
 10
74.8908245727
 20
22.368673448
 10
74.8871687233
 20
22.3654683198
 10
74.883913515
 20
22.3619627108
 10
74.8810589477
 20
22.3582567813
 10
74.8786551015
 20
22.3543505313
 10
74.8767019765
 20
22.3501938807
 10
74.8751494925
 20
22.3458369095
 10
74.8740477297
 20
22.3412796179
 10
74.873396688
 20
22.3365220057
 10
74.8731963675
 20
22.3315139929
  0
LWPOLYLINE
  5
155
330
1F
100
AcDbEntity
  8
0
  6
Continuous
 62
     7
100
AcDbPolyline
 90
        8
 70
   128
 43
0.0
 10
75.059056282
 20
22.2572952429
 10
75.0590938034
 20
22.2893465249
 10
75.0590938034
 20
22.2893465249
 10
75.0911450855
 20
22.2893465249
 10
75.0911450855
 20
22.2893465249
 10
75.0911450855
 20
22.2572952429
 10
75.0911450855
 20
22.2572952429
 10
75.0590938034
 20
22.2572952429
  0
LWPOLYLINE
  5
156
330
1F
100
AcDbEntity
  8
0
  6
Continuous
 62
     7
100
AcDbPolyline
 90
      135
 70
   128
 43
0.0
 10
75.1423835754
 20
22.3246029352
 10
75.1744784188
 20
22.3278080634
 10
75.1744784188
 20
22.3278080634
 10
75.1755801816
 20
22.3223994095
 10
75.1769323451
 20
22.3173413166
 10
75.1785849893
 20
22.3126337845
 10
75.1805381143
 20
22.3082267332
 10
75.18274164
 20
22.304220323
 10
75.1852456464
 20
22.3005143935
 10
75.1880501336
 20
22.297209105
 10
75.1911050214
 20
22.2942042973
 10
75.19446039
 20
22.2915500505
 10
75.1980661592
 20
22.2892964448
 10
75.2018722489
 20
22.2873433198
 10
75.2059788195
 20
22.2857407557
 10
75.2103357906
 20
22.2845388326
 10
75.2149431624
 20
22.2836373903
 10
75.2197508547
 20
22.283136589
 10
75.2248590278
 20
22.2829362685
 10
75.2248590278
 20
22.2829362685
 10
75.2311190438
 20
22.2831866691
 10
75.2370284989
 20
22.2839378711
 10
75.2425873932
 20
22.2851898743
 10
75.2477957265
 20
22.2869426788
 10
75.2527035791
 20
22.2891462044
 10
75.2572608707
 20
22.2919006114
 10
75.2614676015
 20
22.2951057397
 10
75.2653738515
 20
22.2988617493
 10
75.2688794605
 20
22.3030183999
 10
75.2718842682
 20
22.3074755313
 10
75.2744383547
 20
22.3122832236
 10
75.2765417201
 20
22.3173913967
 10
75.2781442842
 20
22.3228501307
 10
75.2792961271
 20
22.3286093454
 10
75.2799972489
 20
22.3347191211
 10
75.2802476496
 20
22.3411293775
 10
75.2802476496
 20
22.3411293775
 10
75.2800473291
 20
22.3472391531
 10
75.2793462073
 20
22.3529983679
 10
75.2782444445
 20
22.3584070217
 10
75.2767420406
 20
22.3635151948
 10
75.2747388355
 20
22.3683228871
 10
75.2722849092
 20
22.3727299384
 10
75.2694303419
 20
22.3768365089
 10
75.2661250534
 20
22.3806425986
 10
75.2624191239
 20
22.3840480473
 10
75.2582624733
 20
22.3869526948
 10
75.2537552618
 20
22.3894567012
 10
75.2487973291
 20
22.3915099864
 10
75.2434387554
 20
22.3930624704
 10
75.2376795406
 20
22.3942143134
 10
75.2314696047
 20
22.394865355
 10
75.2249091079
 20
22.3951157557
 10
75.2249091079
 20
22.3951157557
 10
75.216746047
 20
22.3947151147
 10
75.2092841079
 20
22.3935632717
 10
75.2024732105
 20
22.3916101467
 10
75.1963133547
 20
22.3888557397
 10
75.1908045406
 20
22.3855003711
 10
75.185896688
 20
22.3816942813
 10
75.1814896368
 20
22.3774374704
 10
75.177683547
 20
22.3726798582
 10
75.177683547
 20
22.3726798582
 10
75.145632265
 20
22.3758849864
 10
75.145632265
 20
22.3758849864
 10
75.1712732906
 20
22.5040901147
 10
75.1712732906
 20
22.5040901147
 10
75.2994784188
 20
22.5040901147
 10
75.2994784188
 20
22.5040901147
 10
75.2994784188
 20
22.4720388326
 10
75.2994784188
 20
22.4720388326
 10
75.1975152778
 20
22.4720388326
 10
75.1975152778
 20
22.4720388326
 10
75.1843942842
 20
22.4072852268
 10
75.1843942842
 20
22.4072852268
 10
75.1902035791
 20
22.4111914768
 10
75.1960629541
 20
22.4145969255
 10
75.2019724092
 20
22.4174514929
 10
75.2079820246
 20
22.4198052589
 10
75.2140918002
 20
22.4216081435
 10
75.2202015759
 20
22.4229102268
 10
75.2264115118
 20
22.4237115089
 10
75.2327216079
 20
22.4239619095
 10
75.2327216079
 20
22.4239619095
 10
75.2409347489
 20
22.4236113486
 10
75.2487973291
 20
22.4225596659
 10
75.2563594284
 20
22.4207567813
 10
75.263621047
 20
22.418302855
 10
75.2705321047
 20
22.4150977268
 10
75.2770926015
 20
22.4111914768
 10
75.2833526175
 20
22.406584105
 10
75.2892620727
 20
22.4012756114
 10
75.2946707265
 20
22.3954162364
 10
75.2993281784
 20
22.3891562204
 10
75.3032845086
 20
22.3824955634
 10
75.3065397169
 20
22.3753841852
 10
75.3090437233
 20
22.3679222461
 10
75.3108466079
 20
22.3600095858
 10
75.3119483707
 20
22.3517463647
 10
75.3122989316
 20
22.3430324223
 10
75.3122989316
 20
22.3430324223
 10
75.3119984509
 20
22.3347191211
 10
75.3110469284
 20
22.3266562204
 10
75.3094443643
 20
22.3188938005
 10
75.3072408387
 20
22.3114318614
 10
75.3043862714
 20
22.3042704031
 10
75.3008806624
 20
22.2973593454
 10
75.2967740919
 20
22.2907487685
 10
75.2920164797
 20
22.2844386723
 10
75.2920164797
 20
22.2844386723
 10
75.2855561432
 20
22.2773272941
 10
75.2785950054
 20
22.2711674384
 10
75.271032906
 20
22.265959105
 10
75.2628698451
 20
22.2617022941
 10
75.2542059829
 20
22.2583469255
 10
75.2449411592
 20
22.2559931595
 10
75.2351254541
 20
22.2545408358
 10
75.2247588675
 20
22.2540901147
 10
75.2247588675
 20
22.2540901147
 10
75.2162452457
 20
22.2543905954
 10
75.2080821848
 20
22.2552920377
 10
75.2003698451
 20
22.2567944416
 10
75.1930080663
 20
22.258897807
 10
75.1860970086
 20
22.2616021339
 10
75.1795365118
 20
22.2649575025
 10
75.1734267361
 20
22.2688637525
 10
75.1676675214
 20
22.273370964
 10
75.162459188
 20
22.2783789768
 10
75.1578017361
 20
22.2838377108
 10
75.1537452457
 20
22.2896470057
 10
75.150339797
 20
22.2958569416
 10
75.1474351496
 20
22.3024675185
 10
75.1451815438
 20
22.3094286563
 10
75.1435288996
 20
22.3168405153
 10
75.1424271368
 20
22.3246029352
  0
LWPOLYLINE
  5
157
330
1F
100
AcDbEntity
  8
0
  6
Continuous
 62
     7
100
AcDbPolyline
 90
       28
 70
   128
 43
0.0
 10
75.5967497826
 20
24.6128577995
 10
75.5647106391
 20
24.6128577995
 10
75.5647106391
 20
24.6128577995
 10
75.5647106391
 20
24.8076694982
 10
75.5647106391
 20
24.8076694982
 10
75.5585007032
 20
24.8024110847
 10
75.5513392449
 20
24.7971526713
 10
75.5433264244
 20
24.7918441777
 10
75.5343620814
 20
24.7865857642
 10
75.5251974179
 20
24.7816779117
 10
75.5165335558
 20
24.7773710206
 10
75.5083204147
 20
24.7737652514
 10
75.500608075
 20
24.7708105238
 10
75.500608075
 20
24.7708105238
 10
75.500608075
 20
24.8003577995
 10
75.500608075
 20
24.8003577995
 10
75.5136289083
 20
24.8067179758
 10
75.5257983795
 20
24.8136791136
 10
75.5371665686
 20
24.8212912931
 10
75.5476333154
 20
24.8295545142
 10
75.5569482192
 20
24.838068136
 10
75.5648107994
 20
24.8464815976
 10
75.5712210558
 20
24.8547448187
 10
75.5761289083
 20
24.8628577995
 10
75.5761289083
 20
24.8628577995
 10
75.5967619212
 20
24.8628577995
 10
75.5967619212
 20
24.8628577995
 10
75.5967619212
 20
24.6128577995
  0
LWPOLYLINE
  5
158
330
1F
100
AcDbEntity
  8
0
  6
Continuous
 62
     7
100
AcDbPolyline
 90
      135
 70
   128
 43
0.0
 10
75.680077076
 20
24.6801654918
 10
75.7121465365
 20
24.68337062
 10
75.7121465365
 20
24.68337062
 10
75.7132482994
 20
24.6779619661
 10
75.7146004628
 20
24.6729038732
 10
75.7162531071
 20
24.6681963411
 10
75.7182062321
 20
24.6637892899
 10
75.7204097577
 20
24.6597828796
 10
75.7229137641
 20
24.6560769501
 10
75.7257182513
 20
24.6527716617
 10
75.7287731391
 20
24.649766854
 10
75.7321285077
 20
24.6471126072
 10
75.7357342769
 20
24.6448590014
 10
75.7395403667
 20
24.6429058764
 10
75.7436469372
 20
24.6413033123
 10
75.7480039083
 20
24.6401013892
 10
75.7526112801
 20
24.6391999469
 10
75.7574189724
 20
24.6386991456
 10
75.7625271455
 20
24.6384988251
 10
75.7625271455
 20
24.6384988251
 10
75.7687871615
 20
24.6387492258
 10
75.7746966167
 20
24.6395004277
 10
75.7802555109
 20
24.6407524309
 10
75.7854638442
 20
24.6425052354
 10
75.7903716968
 20
24.644708761
 10
75.7949289885
 20
24.6474631681
 10
75.7991357192
 20
24.6506682963
 10
75.8030419692
 20
24.6544243059
 10
75.8065475782
 20
24.6585809565
 10
75.8095523859
 20
24.6630380879
 10
75.8121064724
 20
24.6678457802
 10
75.8142098378
 20
24.6729539533
 10
75.8158124019
 20
24.6784126873
 10
75.8169642449
 20
24.684171902
 10
75.8176653667
 20
24.6902816777
 10
75.8179157673
 20
24.6966919341
 10
75.8179157673
 20
24.6966919341
 10
75.8177154468
 20
24.7028017097
 10
75.817014325
 20
24.7085609245
 10
75.8159125622
 20
24.7139695783
 10
75.8144101583
 20
24.7190777514
 10
75.8124069532
 20
24.7238854437
 10
75.8099530269
 20
24.728292495
 10
75.8070984596
 20
24.7323990655
 10
75.8037931712
 20
24.7362051552
 10
75.8000872417
 20
24.739610604
 10
75.795930591
 20
24.7425152514
 10
75.7914233795
 20
24.7450192578
 10
75.7864654468
 20
24.7470725431
 10
75.7811068731
 20
24.748625027
 10
75.7753476583
 20
24.74977687
 10
75.7691377224
 20
24.7504279117
 10
75.7625772256
 20
24.7506783123
 10
75.7625772256
 20
24.7506783123
 10
75.7544141647
 20
24.7502776713
 10
75.7469522256
 20
24.7491258283
 10
75.7401413282
 20
24.7471727033
 10
75.7339814724
 20
24.7444182963
 10
75.7284726583
 20
24.7410629277
 10
75.7235648058
 20
24.7372568379
 10
75.7191577545
 20
24.733000027
 10
75.7153516647
 20
24.7282424149
 10
75.7153516647
 20
24.7282424149
 10
75.6833003827
 20
24.7314475431
 10
75.6833003827
 20
24.7314475431
 10
75.7089414083
 20
24.8596526713
 10
75.7089414083
 20
24.8596526713
 10
75.8371465365
 20
24.8596526713
 10
75.8371465365
 20
24.8596526713
 10
75.8371465365
 20
24.8276013892
 10
75.8371465365
 20
24.8276013892
 10
75.7351833955
 20
24.8276013892
 10
75.7351833955
 20
24.8276013892
 10
75.7220624019
 20
24.7628477835
 10
75.7220624019
 20
24.7628477835
 10
75.7278716968
 20
24.7667540335
 10
75.7337310718
 20
24.7701594822
 10
75.7396405269
 20
24.7730140495
 10
75.7456501423
 20
24.7753678155
 10
75.7517599179
 20
24.7771707001
 10
75.7578696936
 20
24.7784727835
 10
75.7640796295
 20
24.7792740655
 10
75.7703897256
 20
24.7795244661
 10
75.7703897256
 20
24.7795244661
 10
75.7786028667
 20
24.7791739052
 10
75.7864654468
 20
24.7781222226
 10
75.7940275462
 20
24.7763193379
 10
75.8012891647
 20
24.7738654117
 10
75.8082002224
 20
24.7706602835
 10
75.8147607192
 20
24.7667540335
 10
75.8210207353
 20
24.7621466617
 10
75.8269301904
 20
24.7568381681
 10
75.8323388442
 20
24.7509787931
 10
75.8369962962
 20
24.744718777
 10
75.8409526263
 20
24.73805812
 10
75.8442078346
 20
24.7309467418
 10
75.846711841
 20
24.7234848027
 10
75.8485147256
 20
24.7155721424
 10
75.8496164885
 20
24.7073089213
 10
75.8499670494
 20
24.698594979
 10
75.8499670494
 20
24.698594979
 10
75.8496665686
 20
24.6902816777
 10
75.8487150462
 20
24.682218777
 10
75.8471124821
 20
24.6744563572
 10
75.8449089564
 20
24.6669944181
 10
75.8420543891
 20
24.6598329597
 10
75.8385487801
 20
24.652921902
 10
75.8344422096
 20
24.6463113251
 10
75.8296845974
 20
24.640001229
 10
75.8296845974
 20
24.640001229
 10
75.8232242609
 20
24.6328898508
 10
75.8162631231
 20
24.626729995
 10
75.8087010237
 20
24.6215216617
 10
75.8005379628
 20
24.6172648508
 10
75.7918741006
 20
24.6139094822
 10
75.7826092769
 20
24.6115557161
 10
75.7727935718
 20
24.6101033924
 10
75.7624269853
 20
24.6096526713
 10
75.7624269853
 20
24.6096526713
 10
75.7539133635
 20
24.609953152
 10
75.7457503026
 20
24.6108545943
 10
75.7380379628
 20
24.6123569982
 10
75.730676184
 20
24.6144603636
 10
75.7237651263
 20
24.6171646905
 10
75.7172046295
 20
24.6205200591
 10
75.7110948538
 20
24.6244263091
 10
75.7053356391
 20
24.6289335206
 10
75.7001273058
 20
24.6339415335
 10
75.6954698538
 20
24.6394002674
 10
75.6914133635
 20
24.6452095623
 10
75.6880079147
 20
24.6514194982
 10
75.6851032673
 20
24.6580300751
 10
75.6828496615
 20
24.6649912129
 10
75.6811970173
 20
24.6724030719
 10
75.6800952545
 20
24.6801654918
  0
LWPOLYLINE
  5
159
330
1F
100
AcDbEntity
  8
0
  6
Continuous
 62
     7
100
AcDbPolyline
 90
       49
 70
   128
 43
0.0
 10
75.8820176125
 20
24.8276013892
 10
75.8820183314
 20
24.8596526713
 10
75.8820183314
 20
24.8596526713
 10
76.0518901263
 20
24.8596526713
 10
76.0518901263
 20
24.8596526713
 10
76.0518901263
 20
24.8337111649
 10
76.0518901263
 20
24.8337111649
 10
76.0456801904
 20
24.8270505078
 10
76.0394702545
 20
24.8198890495
 10
76.0333103987
 20
24.8122267899
 10
76.0271004628
 20
24.804063729
 10
76.0209406071
 20
24.7953998668
 10
76.0148308314
 20
24.7862352033
 10
76.0086709756
 20
24.7765697386
 10
76.0025612
 20
24.7664034726
 10
75.9910427705
 20
24.745469979
 10
75.9809265846
 20
24.7241859245
 10
75.9721625622
 20
24.7026514693
 10
75.9648007833
 20
24.6808165335
 10
75.9648007833
 20
24.6808165335
 10
75.9604438122
 20
24.6649411328
 10
75.9569382032
 20
24.6483145302
 10
75.9542839564
 20
24.6309367258
 10
75.9525311519
 20
24.6128577995
 10
75.9525311519
 20
24.6128577995
 10
75.9204798699
 20
24.6128577995
 10
75.9204798699
 20
24.6128577995
 10
75.9207803506
 20
24.6203197386
 10
75.9214313923
 20
24.6281823187
 10
75.9223829147
 20
24.6364455399
 10
75.9236849981
 20
24.6450593219
 10
75.9253376423
 20
24.6540236649
 10
75.9273408474
 20
24.663438729
 10
75.9296946135
 20
24.673204354
 10
75.9323488603
 20
24.6833205399
 10
75.9386589564
 20
24.7038033123
 10
75.9462210558
 20
24.7238854437
 10
75.9549850782
 20
24.7436170142
 10
75.9650011038
 20
24.7629479437
 10
75.9703596776
 20
24.7723630078
 10
75.9757683314
 20
24.7813774309
 10
75.9813272256
 20
24.7900412931
 10
75.9869362
 20
24.7983045142
 10
75.9925952545
 20
24.8061670943
 10
75.9984045494
 20
24.8136791136
 10
76.0042639244
 20
24.8208405719
 10
76.0102234596
 20
24.8276013892
 10
76.0102234596
 20
24.8276013892
 10
75.8820183314
 20
24.8276013892
  0
LWPOLYLINE
  5
15A
330
1F
100
AcDbEntity
  8
0
  6
Continuous
 62
     7
100
AcDbPolyline
 90
       28
 70
   128
 43
0.0
 10
77.9992938042
 20
26.8009978431
 10
77.9672569197
 20
26.8009978431
 10
77.9672569197
 20
26.8009978431
 10
77.9672569197
 20
26.9958095418
 10
77.9672569197
 20
26.9958095418
 10
77.9610469838
 20
26.9905511284
 10
77.9538855255
 20
26.9852927149
 10
77.945872705
 20
26.9799842213
 10
77.936908362
 20
26.9747258079
 10
77.9277436986
 20
26.9698179553
 10
77.9190798364
 20
26.9655110643
 10
77.9108666954
 20
26.961905295
 10
77.9031543556
 20
26.9589505675
 10
77.9031543556
 20
26.9589505675
 10
77.9031543556
 20
26.9884978431
 10
77.9031543556
 20
26.9884978431
 10
77.9161751889
 20
26.9948580194
 10
77.9283446601
 20
27.0018191572
 10
77.9397128492
 20
27.0094313367
 10
77.950179596
 20
27.0176945579
 10
77.9594944998
 20
27.0262081797
 10
77.96735708
 20
27.0346216412
 10
77.9737673364
 20
27.0428848623
 10
77.9786751889
 20
27.0509978431
 10
77.9786751889
 20
27.0509978431
 10
77.9993082018
 20
27.0509978431
 10
77.9993082018
 20
27.0509978431
 10
77.9993082018
 20
26.8009978431
  0
LWPOLYLINE
  5
15B
330
1F
100
AcDbEntity
  8
0
  6
Continuous
 62
     7
100
AcDbPolyline
 90
      135
 70
   128
 43
0.0
 10
78.0826210976
 20
26.8683055354
 10
78.1146928172
 20
26.8715106636
 10
78.1146928172
 20
26.8715106636
 10
78.11579458
 20
26.8661020098
 10
78.1171467434
 20
26.8610439168
 10
78.1187993877
 20
26.8563363848
 10
78.1207525127
 20
26.8519293335
 10
78.1229560383
 20
26.8479229232
 10
78.1254600447
 20
26.8442169938
 10
78.1282645319
 20
26.8409117053
 10
78.1313194197
 20
26.8379068976
 10
78.1346747883
 20
26.8352526508
 10
78.1382805575
 20
26.832999045
 10
78.1420866473
 20
26.83104592
 10
78.1461932178
 20
26.8294433559
 10
78.1505501889
 20
26.8282414329
 10
78.1551575607
 20
26.8273399906
 10
78.159965253
 20
26.8268391893
 10
78.1650734261
 20
26.8266388688
 10
78.1650734261
 20
26.8266388688
 10
78.1713334422
 20
26.8268892694
 10
78.1772428973
 20
26.8276404713
 10
78.1828017915
 20
26.8288924745
 10
78.1880101248
 20
26.830645279
 10
78.1929179774
 20
26.8328488047
 10
78.1974752691
 20
26.8356032117
 10
78.2016819998
 20
26.8388083399
 10
78.2055882498
 20
26.8425643495
 10
78.2090938588
 20
26.8467210002
 10
78.2120986665
 20
26.8511781316
 10
78.214652753
 20
26.8559858239
 10
78.2167561184
 20
26.861093997
 10
78.2183586825
 20
26.8665527309
 10
78.2195105255
 20
26.8723119457
 10
78.2202116473
 20
26.8784217213
 10
78.2204620479
 20
26.8848319777
 10
78.2204620479
 20
26.8848319777
 10
78.2202617274
 20
26.8909417534
 10
78.2195606056
 20
26.8967009681
 10
78.2184588428
 20
26.902109622
 10
78.2169564389
 20
26.907217795
 10
78.2149532338
 20
26.9120254873
 10
78.2124993075
 20
26.9164325386
 10
78.2096447402
 20
26.9205391091
 10
78.2063394518
 20
26.9243451989
 10
78.2026335223
 20
26.9277506476
 10
78.1984768716
 20
26.930655295
 10
78.1939696601
 20
26.9331593014
 10
78.1890117274
 20
26.9352125867
 10
78.1836531537
 20
26.9367650707
 10
78.1778939389
 20
26.9379169136
 10
78.171684003
 20
26.9385679553
 10
78.1651235063
 20
26.9388183559
 10
78.1651235063
 20
26.9388183559
 10
78.1569604454
 20
26.9384177149
 10
78.1494985063
 20
26.937265872
 10
78.1426876088
 20
26.935312747
 10
78.136527753
 20
26.9325583399
 10
78.1310189389
 20
26.9292029713
 10
78.1261110864
 20
26.9253968816
 10
78.1217040351
 20
26.9211400707
 10
78.1178979454
 20
26.9163824585
 10
78.1178979454
 20
26.9163824585
 10
78.0858466633
 20
26.9195875867
 10
78.0858466633
 20
26.9195875867
 10
78.1114876889
 20
27.0477927149
 10
78.1114876889
 20
27.0477927149
 10
78.2396928172
 20
27.0477927149
 10
78.2396928172
 20
27.0477927149
 10
78.2396928172
 20
27.0157414329
 10
78.2396928172
 20
27.0157414329
 10
78.1377296761
 20
27.0157414329
 10
78.1377296761
 20
27.0157414329
 10
78.1246086825
 20
26.9509878271
 10
78.1246086825
 20
26.9509878271
 10
78.1304179774
 20
26.9548940771
 10
78.1362773524
 20
26.9582995258
 10
78.1421868075
 20
26.9611540931
 10
78.1481964229
 20
26.9635078591
 10
78.1543061986
 20
26.9653107438
 10
78.1604159742
 20
26.9666128271
 10
78.1666259101
 20
26.9674141091
 10
78.1729360063
 20
26.9676645098
 10
78.1729360063
 20
26.9676645098
 10
78.1811491473
 20
26.9673139489
 10
78.1890117274
 20
26.9662622662
 10
78.1965738268
 20
26.9644593816
 10
78.2038354454
 20
26.9620054553
 10
78.210746503
 20
26.9588003271
 10
78.2173069998
 20
26.9548940771
 10
78.2235670159
 20
26.9502867053
 10
78.229476471
 20
26.9449782117
 10
78.2348851248
 20
26.9391188367
 10
78.2395425768
 20
26.9328588207
 10
78.2434989069
 20
26.9261981636
 10
78.2467541152
 20
26.9190867854
 10
78.2492581216
 20
26.9116248463
 10
78.2510610063
 20
26.9037121861
 10
78.2521627691
 20
26.8954489649
 10
78.25251333
 20
26.8867350226
 10
78.25251333
 20
26.8867350226
 10
78.2522128492
 20
26.8784217213
 10
78.2512613268
 20
26.8703588207
 10
78.2496587627
 20
26.8625964008
 10
78.247455237
 20
26.8551344617
 10
78.2446006697
 20
26.8479730034
 10
78.2410950607
 20
26.8410619457
 10
78.2369884902
 20
26.8344513688
 10
78.232230878
 20
26.8281412726
 10
78.232230878
 20
26.8281412726
 10
78.2257705415
 20
26.8210298944
 10
78.2188094037
 20
26.8148700386
 10
78.2112473043
 20
26.8096617053
 10
78.2030842434
 20
26.8054048944
 10
78.1944203813
 20
26.8020495258
 10
78.1851555575
 20
26.7996957598
 10
78.1753398524
 20
26.7982434361
 10
78.1649732659
 20
26.7977927149
 10
78.1649732659
 20
26.7977927149
 10
78.1564596441
 20
26.7980931957
 10
78.1482965832
 20
26.798994638
 10
78.1405842434
 20
26.8004970418
 10
78.1332224646
 20
26.8026004072
 10
78.1263114069
 20
26.8053047341
 10
78.1197509101
 20
26.8086601027
 10
78.1136411345
 20
26.8125663527
 10
78.1078819197
 20
26.8170735643
 10
78.1026735864
 20
26.8220815771
 10
78.0980161345
 20
26.8275403111
 10
78.0939596441
 20
26.8333496059
 10
78.0905541954
 20
26.8395595418
 10
78.0876495479
 20
26.8461701188
 10
78.0853959422
 20
26.8531312566
 10
78.0837432979
 20
26.8605431156
 10
78.0826415351
 20
26.8683055354
  0
LWPOLYLINE
  5
15C
330
1F
100
AcDbEntity
  8
0
  6
Continuous
 62
     7
100
AcDbPolyline
 90
       49
 70
   128
 43
0.0
 10
78.2845616341
 20
27.0157414329
 10
78.284564612
 20
27.0477927149
 10
78.284564612
 20
27.0477927149
 10
78.4544364069
 20
27.0477927149
 10
78.4544364069
 20
27.0477927149
 10
78.4544364069
 20
27.0218512085
 10
78.4544364069
 20
27.0218512085
 10
78.448226471
 20
27.0151905514
 10
78.4420165351
 20
27.0080290931
 10
78.4358566793
 20
27.0003668335
 10
78.4296467434
 20
26.9922037726
 10
78.4234868877
 20
26.9835399104
 10
78.417377112
 20
26.974375247
 10
78.4112172563
 20
26.9647097822
 10
78.4051074806
 20
26.9545435162
 10
78.3935890511
 20
26.9336100226
 10
78.3834728652
 20
26.9123259681
 10
78.3747088428
 20
26.890791513
 10
78.3673470639
 20
26.8689565771
 10
78.3673470639
 20
26.8689565771
 10
78.3629900928
 20
26.8530811764
 10
78.3594844838
 20
26.8364545739
 10
78.356830237
 20
26.8190767694
 10
78.3550774325
 20
26.8009978431
 10
78.3550774325
 20
26.8009978431
 10
78.3230261505
 20
26.8009978431
 10
78.3230261505
 20
26.8009978431
 10
78.3233266313
 20
26.8084597822
 10
78.3239776729
 20
26.8163223623
 10
78.3249291954
 20
26.8245855835
 10
78.3262312787
 20
26.8331993656
 10
78.3278839229
 20
26.8421637085
 10
78.329887128
 20
26.8515787726
 10
78.3322408941
 20
26.8613443976
 10
78.3348951409
 20
26.8714605835
 10
78.341205237
 20
26.8919433559
 10
78.3487673364
 20
26.9120254873
 10
78.3575313588
 20
26.9317570579
 10
78.3675473845
 20
26.9510879873
 10
78.3729059582
 20
26.9605030514
 10
78.378314612
 20
26.9695174745
 10
78.3838735063
 20
26.9781813367
 10
78.3894824806
 20
26.9864445579
 10
78.3951415351
 20
26.994307138
 10
78.40095083
 20
27.0018191572
 10
78.406810205
 20
27.0089806156
 10
78.4127697402
 20
27.0157414329
 10
78.4127697402
 20
27.0157414329
 10
78.284564612
 20
27.0157414329
  0
LWPOLYLINE
  5
15D
330
1F
100
AcDbEntity
  8
0
  6
Continuous
 62
     7
100
AcDbPolyline
 90
      124
 70
   128
 43
0.0
 10
79.6161293983
 20
27.6004900916
 10
79.6113911929
 20
27.6022929762
 10
79.6069841416
 20
27.6042961813
 10
79.6028775711
 20
27.6064496268
 10
79.5990714813
 20
27.6088033928
 10
79.5955658724
 20
27.6113574794
 10
79.5924108243
 20
27.6140618063
 10
79.589556257
 20
27.6169664537
 10
79.5870522506
 20
27.6200213416
 10
79.5828955999
 20
27.6266819986
 10
79.5799408724
 20
27.6339436172
 10
79.5781880679
 20
27.6418061973
 10
79.5775871063
 20
27.6503198191
 10
79.5775871063
 20
27.6503198191
 10
79.5778875871
 20
27.6568803159
 10
79.5788891897
 20
27.6631403319
 10
79.5804416736
 20
27.6691499473
 10
79.5826952794
 20
27.6749091621
 10
79.5855498467
 20
27.680367896
 10
79.5891055358
 20
27.6855762294
 10
79.5932121063
 20
27.6905341621
 10
79.5980197986
 20
27.695191614
 10
79.6033282922
 20
27.6994484249
 10
79.609087507
 20
27.7031543544
 10
79.6152974429
 20
27.7062593223
 10
79.6218579397
 20
27.7088134089
 10
79.6288691576
 20
27.710816614
 10
79.6363310967
 20
27.7122188576
 10
79.6441936768
 20
27.7130702198
 10
79.652456898
 20
27.7133707005
 10
79.652456898
 20
27.7133707005
 10
79.6607701993
 20
27.7130702198
 10
79.6686828595
 20
27.7122188576
 10
79.6761948788
 20
27.7107665339
 10
79.6832561768
 20
27.7087132486
 10
79.6899168339
 20
27.7061090819
 10
79.6961768499
 20
27.7029039537
 10
79.7019861448
 20
27.6991479441
 10
79.7073947986
 20
27.694790973
 10
79.7123026512
 20
27.6900333608
 10
79.716509382
 20
27.6849752678
 10
79.7201151512
 20
27.6797168544
 10
79.7230197986
 20
27.6742080403
 10
79.7253234845
 20
27.6683987454
 10
79.7269260486
 20
27.6623390499
 10
79.7279276512
 20
27.6560790339
 10
79.728228132
 20
27.6495185371
 10
79.728228132
 20
27.6495185371
 10
79.7276271704
 20
27.641305396
 10
79.7258743659
 20
27.6335930563
 10
79.7229697185
 20
27.6264816781
 10
79.718863148
 20
27.6199211813
 10
79.7136047345
 20
27.6140117262
 10
79.707144398
 20
27.6088033928
 10
79.6994320583
 20
27.6042961813
 10
79.6905678756
 20
27.6004900916
 10
79.6905678756
 20
27.6004900916
 10
79.6961768499
 20
27.5984868864
 10
79.7014352634
 20
27.5961331204
 10
79.7063431159
 20
27.5935289537
 10
79.7109504877
 20
27.5906743864
 10
79.7151572185
 20
27.5874692582
 10
79.7190634685
 20
27.5840137294
 10
79.7225690775
 20
27.5802577198
 10
79.7257742057
 20
27.5762012294
 10
79.7285786929
 20
27.5718943383
 10
79.7310326192
 20
27.5673871268
 10
79.7331359845
 20
27.5626795948
 10
79.7348387089
 20
27.5578218223
 10
79.7361407922
 20
27.5526635691
 10
79.7370923147
 20
27.5473550755
 10
79.7376431961
 20
27.5418462614
 10
79.7378435166
 20
27.5361371268
 10
79.7378435166
 20
27.5361371268
 10
79.7374929557
 20
27.5282745467
 10
79.7363911929
 20
27.5207124473
 10
79.7345382281
 20
27.5134508287
 10
79.7319841416
 20
27.506539771
 10
79.7287289333
 20
27.4999291941
 10
79.7246724429
 20
27.4936691781
 10
79.7199148307
 20
27.4877096428
 10
79.7144560967
 20
27.4820505883
 10
79.7083964012
 20
27.4769424153
 10
79.7018359044
 20
27.4724852839
 10
79.6948246865
 20
27.4687292742
 10
79.6873627474
 20
27.4656243063
 10
79.6794500871
 20
27.4632204601
 10
79.6710867057
 20
27.4615177358
 10
79.662222523
 20
27.4605161332
 10
79.6529076192
 20
27.4601655723
 10
79.6529076192
 20
27.4601655723
 10
79.6435927153
 20
27.4605161332
 10
79.6347285326
 20
27.4615177358
 10
79.6263651512
 20
27.4632705403
 10
79.6184524909
 20
27.4656743864
 10
79.6109905518
 20
27.4687292742
 10
79.6039793339
 20
27.472535364
 10
79.5974188371
 20
27.4769924954
 10
79.5913591416
 20
27.4821507486
 10
79.5859004076
 20
27.4878098031
 10
79.5811427954
 20
27.4938194185
 10
79.577086305
 20
27.5001795948
 10
79.5738310967
 20
27.5068402518
 10
79.5712770102
 20
27.5139015499
 10
79.5694240454
 20
27.5212633287
 10
79.5683222826
 20
27.5289255883
 10
79.5679717217
 20
27.536988489
 10
79.5679717217
 20
27.536988489
 10
79.5681720422
 20
27.5429981044
 10
79.5687730038
 20
27.5487573191
 10
79.5697245262
 20
27.5542160531
 10
79.5711267698
 20
27.5594744666
 10
79.5728795743
 20
27.5644824794
 10
79.5750330198
 20
27.5692400916
 10
79.5775370262
 20
27.573697223
 10
79.5804917538
 20
27.5779540339
 10
79.5837970422
 20
27.581910364
 10
79.5874028115
 20
27.5855662133
 10
79.5913591416
 20
27.5888715018
 10
79.5956660326
 20
27.5918763095
 10
79.6002734044
 20
27.5944804762
 10
79.6052313371
 20
27.5968342422
 10
79.6105398307
 20
27.5988374473
 10
79.616148805
 20
27.6004900916
  0
LWPOLYLINE
  5
15E
330
1F
100
AcDbEntity
  8
0
  6
Continuous
 62
     7
100
AcDbPolyline
 90
       68
 70
   128
 43
0.0
 10
79.6096324921
 20
27.6501695787
 10
79.6098387089
 20
27.6462633287
 10
79.6103395102
 20
27.6425573992
 10
79.6112409525
 20
27.6390517903
 10
79.6124929557
 20
27.6356964217
 10
79.6140454397
 20
27.6325413736
 10
79.6159985647
 20
27.6295365659
 10
79.6183022506
 20
27.6267320787
 10
79.6209564974
 20
27.6241279121
 10
79.623961305
 20
27.621774146
 10
79.6272165134
 20
27.6197208608
 10
79.6308222826
 20
27.6179680563
 10
79.6346784525
 20
27.6165658127
 10
79.6388851833
 20
27.6154139698
 10
79.6433923948
 20
27.6146627678
 10
79.648150007
 20
27.6141619666
 10
79.65325818
 20
27.6140117262
 10
79.65325818
 20
27.6140117262
 10
79.6582161127
 20
27.6141619666
 10
79.6629236448
 20
27.6146627678
 10
79.6672806159
 20
27.6154139698
 10
79.6713871865
 20
27.6165157326
 10
79.6751932762
 20
27.6179179762
 10
79.6787489653
 20
27.6196707807
 10
79.6819540935
 20
27.6216739858
 10
79.6849088211
 20
27.6240277518
 10
79.6875630679
 20
27.6266319185
 10
79.6898166736
 20
27.6293362454
 10
79.6917697986
 20
27.6321908127
 10
79.6933723627
 20
27.6352457005
 10
79.6945742858
 20
27.6383506685
 10
79.6954757281
 20
27.6416559569
 10
79.6959765294
 20
27.6451114858
 10
79.6961768499
 20
27.6486671749
 10
79.6961768499
 20
27.6486671749
 10
79.6959765294
 20
27.6523731044
 10
79.6954757281
 20
27.6559287935
 10
79.6945242057
 20
27.6593843223
 10
79.6932722025
 20
27.6626395307
 10
79.6916195583
 20
27.6657444986
 10
79.6896664333
 20
27.6686992262
 10
79.6872625871
 20
27.6715037133
 10
79.6845582602
 20
27.6741579601
 10
79.6815534525
 20
27.6766118864
 10
79.678248164
 20
27.6787152518
 10
79.6746924749
 20
27.6804680563
 10
79.6708863852
 20
27.68192038
 10
79.6667798147
 20
27.683072223
 10
79.6624228435
 20
27.683873505
 10
79.6578154717
 20
27.6843743063
 10
79.6529076192
 20
27.6845245467
 10
79.6529076192
 20
27.6845245467
 10
79.6479997666
 20
27.6843743063
 10
79.6433423147
 20
27.683873505
 10
79.6389352634
 20
27.6831223031
 10
79.634878773
 20
27.6820205403
 10
79.6310226031
 20
27.6805682166
 10
79.627466914
 20
27.6788154121
 10
79.6241616256
 20
27.6767621268
 10
79.6211568179
 20
27.6744083608
 10
79.6184524909
 20
27.6718041941
 10
79.6160987249
 20
27.6690998672
 10
79.6141455999
 20
27.6662452999
 10
79.6125430358
 20
27.6632905723
 10
79.6112409525
 20
27.6601856044
 10
79.6103395102
 20
27.6569804762
 10
79.6098387089
 20
27.6536251076
 10
79.6096383884
 20
27.6501695787
  0
LWPOLYLINE
  5
15F
330
1F
100
AcDbEntity
  8
0
  6
Continuous
 62
     7
100
AcDbPolyline
 90
       64
 70
   128
 43
0.0
 10
79.5999765396
 20
27.5375894505
 10
79.6003735647
 20
27.5314295948
 10
79.6014252474
 20
27.5253198191
 10
79.603228132
 20
27.5193602839
 10
79.6056820583
 20
27.5134508287
 10
79.6089873467
 20
27.5079420146
 10
79.6133443179
 20
27.5030842422
 10
79.6186027313
 20
27.4989275916
 10
79.6249128275
 20
27.4953719025
 10
79.631773805
 20
27.4925674153
 10
79.638785023
 20
27.4906142903
 10
79.6458964012
 20
27.4894123672
 10
79.6531580198
 20
27.4890117262
 10
79.6531580198
 20
27.4890117262
 10
79.659117555
 20
27.4892120467
 10
79.6647766095
 20
27.4898630883
 10
79.6700851031
 20
27.490914771
 10
79.6750430358
 20
27.4923670948
 10
79.6797004877
 20
27.4942701396
 10
79.6840574589
 20
27.4965738255
 10
79.6880638692
 20
27.4992781525
 10
79.6917197185
 20
27.5024332005
 10
79.695025007
 20
27.5059388095
 10
79.6978795743
 20
27.509644739
 10
79.7002834204
 20
27.513550989
 10
79.7022866256
 20
27.5177076396
 10
79.7037890294
 20
27.5221146909
 10
79.7048907922
 20
27.5267220627
 10
79.705591914
 20
27.531529755
 10
79.7057922345
 20
27.536587848
 10
79.7057922345
 20
27.536587848
 10
79.7055418339
 20
27.5417461012
 10
79.7048907922
 20
27.5466539537
 10
79.7037389493
 20
27.5513614858
 10
79.7021864653
 20
27.5558186172
 10
79.70013318
 20
27.5600754281
 10
79.6976291736
 20
27.5640818383
 10
79.6946744461
 20
27.567837848
 10
79.6912689974
 20
27.5713935371
 10
79.6874629076
 20
27.5745986653
 10
79.6833563371
 20
27.5774031525
 10
79.6789492858
 20
27.5798069986
 10
79.6742417538
 20
27.5817100435
 10
79.6691836608
 20
27.5832124473
 10
79.663775007
 20
27.5843142101
 10
79.6581159525
 20
27.5849652518
 10
79.6521063371
 20
27.5851655723
 10
79.6521063371
 20
27.5851655723
 10
79.6462469621
 20
27.5849652518
 10
79.6406880679
 20
27.5843142101
 10
79.6354797345
 20
27.5832625275
 10
79.6305218018
 20
27.5817601236
 10
79.62591443
 20
27.5798570787
 10
79.6216576192
 20
27.5775033127
 10
79.6176512089
 20
27.5747489057
 10
79.6139953595
 20
27.5715437775
 10
79.6107401512
 20
27.5680381685
 10
79.6078855839
 20
27.564332239
 10
79.6054817377
 20
27.560425989
 10
79.6035286127
 20
27.5562693383
 10
79.6019761288
 20
27.5519123672
 10
79.6008743659
 20
27.5473550755
 10
79.6002233243
 20
27.5425974633
 10
79.6000230038
 20
27.5375894505
  0
LWPOLYLINE
  5
160
330
1F
100
AcDbEntity
  8
0
  6
Continuous
 62
     7
100
AcDbPolyline
 90
       22
 70
   128
 43
0.0
 10
79.8756480217
 20
27.4633707005
 10
79.8756640294
 20
27.5242681364
 10
79.8756640294
 20
27.5242681364
 10
79.7570742858
 20
27.5242681364
 10
79.7570742858
 20
27.5242681364
 10
79.7570742858
 20
27.5563194185
 10
79.7570742858
 20
27.5563194185
 10
79.8820742858
 20
27.7101655723
 10
79.8820742858
 20
27.7101655723
 10
79.9077153115
 20
27.7101655723
 10
79.9077153115
 20
27.7101655723
 10
79.9077153115
 20
27.5563194185
 10
79.9077153115
 20
27.5563194185
 10
79.9397665935
 20
27.5563194185
 10
79.9397665935
 20
27.5563194185
 10
79.9397665935
 20
27.5242681364
 10
79.9397665935
 20
27.5242681364
 10
79.9077153115
 20
27.5242681364
 10
79.9077153115
 20
27.5242681364
 10
79.9077153115
 20
27.4633707005
 10
79.9077153115
 20
27.4633707005
 10
79.8756640294
 20
27.4633707005
  0
LWPOLYLINE
  5
161
330
1F
100
AcDbEntity
  8
0
  6
Continuous
 62
     7
100
AcDbPolyline
 90
        6
 70
   128
 43
0.0
 10
79.8756480217
 20
27.5563194185
 10
79.8756640294
 20
27.652222864
 10
79.8756640294
 20
27.652222864
 10
79.7976892698
 20
27.5563194185
 10
79.7976892698
 20
27.5563194185
 10
79.8756640294
 20
27.5563194185
  0
LWPOLYLINE
  5
162
330
1F
100
AcDbEntity
  8
0
  6
Continuous
 62
     7
100
AcDbPolyline
 90
       20
 70
   128
 43
0.0
 10
78.0864357948
 20
18.2268000161
 10
78.0864912044
 20
18.7268000161
 10
78.0864912044
 20
18.7268000161
 10
78.4390553069
 20
18.7268000161
 10
78.4390553069
 20
18.7268000161
 10
78.4390553069
 20
18.6434666828
 10
78.4390553069
 20
18.6434666828
 10
78.1890553069
 20
18.6434666828
 10
78.1890553069
 20
18.6434666828
 10
78.1890553069
 20
18.521671811
 10
78.1890553069
 20
18.521671811
 10
78.4070040249
 20
18.521671811
 10
78.4070040249
 20
18.521671811
 10
78.4070040249
 20
18.4383384777
 10
78.4070040249
 20
18.4383384777
 10
78.1890553069
 20
18.4383384777
 10
78.1890553069
 20
18.4383384777
 10
78.1890553069
 20
18.2268000161
 10
78.1890553069
 20
18.2268000161
 10
78.0864912044
 20
18.2268000161
  0
LWPOLYLINE
  5
163
330
1F
100
AcDbEntity
  8
0
  6
Continuous
 62
     7
100
AcDbPolyline
 90
       52
 70
   128
 43
0.0
 10
78.6313414574
 20
18.2268000161
 10
78.5287988967
 20
18.2268000161
 10
78.5287988967
 20
18.2268000161
 10
78.5287988967
 20
18.5921846315
 10
78.5287988967
 20
18.5921846315
 10
78.6313629993
 20
18.5921846315
 10
78.6313629993
 20
18.5921846315
 10
78.6313629993
 20
18.541203061
 10
78.6313629993
 20
18.541203061
 10
78.6365713326
 20
18.5498168431
 10
78.6416795057
 20
18.5577295033
 10
78.6465873582
 20
18.5647407213
 10
78.6513950505
 20
18.5709506572
 10
78.6561025826
 20
18.5764594713
 10
78.6606097941
 20
18.5810668431
 10
78.6650168454
 20
18.5849730931
 10
78.6693237364
 20
18.5879779008
 10
78.6780376787
 20
18.5925852726
 10
78.6873525826
 20
18.5959907213
 10
78.697268448
 20
18.5978937661
 10
78.7076851146
 20
18.5985948879
 10
78.7076851146
 20
18.5985948879
 10
78.7227091531
 20
18.5972928046
 10
78.7374327108
 20
18.5935868751
 10
78.7518557877
 20
18.5871766187
 10
78.7659783839
 20
18.5783625161
 10
78.7659783839
 20
18.5783625161
 10
78.73713223
 20
18.486916202
 10
78.73713223
 20
18.486916202
 10
78.7256138005
 20
18.4937270995
 10
78.7144960121
 20
18.4985347918
 10
78.7037788646
 20
18.5014394392
 10
78.6934623582
 20
18.5024410418
 10
78.6934623582
 20
18.5024410418
 10
78.6841474544
 20
18.50173992
 10
78.6755336723
 20
18.4997367149
 10
78.6676210121
 20
18.4964314264
 10
78.6604094736
 20
18.4917238944
 10
78.6539992172
 20
18.4853136379
 10
78.6482900826
 20
18.4766998559
 10
78.64338223
 20
18.4658825482
 10
78.639075339
 20
18.4528617149
 10
78.6372724544
 20
18.4448488944
 10
78.6356698903
 20
18.4350331892
 10
78.6343678069
 20
18.423214279
 10
78.6332660441
 20
18.4093921636
 10
78.6324647621
 20
18.3937671636
 10
78.6318638005
 20
18.3761389585
 10
78.6314631595
 20
18.3566077085
 10
78.6313629993
 20
18.3351734136
 10
78.6313629993
 20
18.3351734136
 10
78.6313629993
 20
18.2268000161
  0
LWPOLYLINE
  5
164
330
1F
100
AcDbEntity
  8
0
  6
Continuous
 62
     7
100
AcDbPolyline
 90
       80
 70
   128
 43
0.0
 10
78.7851810455
 20
18.4146004969
 10
78.7856097941
 20
18.4265195674
 10
78.7867115569
 20
18.4382383174
 10
78.7887147621
 20
18.4499570674
 10
78.791419089
 20
18.4615756572
 10
78.7948245377
 20
18.4729939264
 10
78.7990312685
 20
18.4844121956
 10
78.8040392813
 20
18.4957303046
 10
78.8098485762
 20
18.5069482533
 10
78.8163589928
 20
18.517765561
 10
78.823470371
 20
18.5279819072
 10
78.8311827108
 20
18.5374971315
 10
78.8395961723
 20
18.5463112341
 10
78.8486105954
 20
18.5545243751
 10
78.8583261403
 20
18.5620363944
 10
78.8686426467
 20
18.5688472918
 10
78.8795601146
 20
18.5750572277
 10
78.8909783839
 20
18.5805660418
 10
78.9027972941
 20
18.5853737341
 10
78.9149166851
 20
18.5893801444
 10
78.9273365569
 20
18.5926854328
 10
78.9400569095
 20
18.5952895995
 10
78.9531779031
 20
18.5970924841
 10
78.9665993775
 20
18.5981942469
 10
78.9803213326
 20
18.5985948879
 10
78.9803213326
 20
18.5985948879
 10
79.0013549864
 20
18.5977936059
 10
79.0213870377
 20
18.5952895995
 10
79.0405176467
 20
18.5910828687
 10
79.0585464928
 20
18.5852735738
 10
79.0756738967
 20
18.5777615546
 10
79.0918998582
 20
18.568546811
 10
79.1070240569
 20
18.5577295033
 10
79.1212468134
 20
18.5452094713
 10
79.1341674864
 20
18.5314875161
 10
79.1452852749
 20
18.5167639585
 10
79.1548004993
 20
18.5012391187
 10
79.162512839
 20
18.4849129969
 10
79.1685224544
 20
18.4675852726
 10
79.1728293454
 20
18.4494562661
 10
79.1753333518
 20
18.4304258174
 10
79.1762347941
 20
18.4104939264
 10
79.1762347941
 20
18.4104939264
 10
79.1753333518
 20
18.3903617149
 10
79.1727291851
 20
18.3712311059
 10
79.1684222941
 20
18.352901779
 10
79.1624126787
 20
18.3353737341
 10
79.1546001787
 20
18.3188472918
 10
79.1449847941
 20
18.3031221315
 10
79.1337668454
 20
18.2882984136
 10
79.1207460121
 20
18.2743761379
 10
79.1064230954
 20
18.2617559456
 10
79.0911987364
 20
18.2507383174
 10
79.0750729351
 20
18.2415235738
 10
79.0581458518
 20
18.2339113944
 10
79.0402171659
 20
18.2280019392
 10
79.0213870377
 20
18.2237952085
 10
79.0017556275
 20
18.2211910418
 10
78.9811226146
 20
18.2203897597
 10
78.9811226146
 20
18.2203897597
 10
78.9553814287
 20
18.2217920033
 10
78.9302412044
 20
18.2259987341
 10
78.9057019416
 20
18.233009952
 10
78.8817636403
 20
18.2428256572
 10
78.870345371
 20
18.2488352726
 10
78.8595280634
 20
18.2554458495
 10
78.8495120377
 20
18.2626573879
 10
78.8401971339
 20
18.2705700482
 10
78.8314831916
 20
18.2791838302
 10
78.8235705313
 20
18.2883985738
 10
78.8163589928
 20
18.298214279
 10
78.8098485762
 20
18.3087311059
 10
78.8040392813
 20
18.3198488944
 10
78.7990312685
 20
18.3316678046
 10
78.7948245377
 20
18.3439875161
 10
78.791419089
 20
18.3569081892
 10
78.7887147621
 20
18.3704298238
 10
78.7867115569
 20
18.38455242
 10
78.7856097941
 20
18.3992759777
 10
78.7852091531
 20
18.4146004969
  0
LWPOLYLINE
  5
165
330
1F
100
AcDbEntity
  8
0
  6
Continuous
 62
     7
100
AcDbPolyline
 90
       68
 70
   128
 43
0.0
 10
78.8877606392
 20
18.4094923238
 10
78.8881738967
 20
18.3955700482
 10
78.88947598
 20
18.3824490546
 10
78.8915793454
 20
18.3701293431
 10
78.8944839928
 20
18.3587110738
 10
78.8982900826
 20
18.3481942469
 10
78.9028974544
 20
18.3383785418
 10
78.9083061082
 20
18.329464279
 10
78.9146162044
 20
18.3214514585
 10
78.9215272621
 20
18.3143400802
 10
78.9288389608
 20
18.3081301444
 10
78.9365513005
 20
18.3028216508
 10
78.9446642813
 20
18.2985147597
 10
78.9530777428
 20
18.2952094713
 10
78.9619920057
 20
18.2928056251
 10
78.9712067493
 20
18.2914033815
 10
78.9809222941
 20
18.2909025802
 10
78.9809222941
 20
18.2909025802
 10
78.9905376787
 20
18.2914033815
 10
78.9998525826
 20
18.2928056251
 10
79.0086666851
 20
18.2952094713
 10
79.0170801467
 20
18.2985147597
 10
79.0251931275
 20
18.3028216508
 10
79.0328053069
 20
18.3081301444
 10
79.0401170057
 20
18.3143400802
 10
79.0469279031
 20
18.3214514585
 10
79.0532379993
 20
18.3295644392
 10
79.0586466531
 20
18.338478702
 10
79.0632540249
 20
18.3482944072
 10
79.0669599544
 20
18.3589113944
 10
79.0698646018
 20
18.3704298238
 10
79.0719679672
 20
18.3828496956
 10
79.0732700505
 20
18.3960708495
 10
79.0736706916
 20
18.4101934456
 10
79.0736706916
 20
18.4101934456
 10
79.0732700505
 20
18.424015561
 10
79.0719679672
 20
18.4369362341
 10
79.0698646018
 20
18.4490556251
 10
79.0669599544
 20
18.4604738944
 10
79.0632540249
 20
18.470890561
 10
79.0586466531
 20
18.4806061059
 10
79.0532379993
 20
18.4895203687
 10
79.0469279031
 20
18.4975331892
 10
79.0401170057
 20
18.5046445674
 10
79.0328053069
 20
18.5108545033
 10
79.0251931275
 20
18.5161629969
 10
79.0170801467
 20
18.5204698879
 10
79.0086666851
 20
18.5237751764
 10
78.9998525826
 20
18.5261790226
 10
78.9905376787
 20
18.5275812661
 10
78.9809222941
 20
18.5280820674
 10
78.9809222941
 20
18.5280820674
 10
78.9712067493
 20
18.5275812661
 10
78.9619920057
 20
18.5261790226
 10
78.9530777428
 20
18.5237751764
 10
78.9446642813
 20
18.5204698879
 10
78.9365513005
 20
18.5161629969
 10
78.9288389608
 20
18.5108545033
 10
78.9215272621
 20
18.5046445674
 10
78.9146162044
 20
18.4975331892
 10
78.9083061082
 20
18.4895203687
 10
78.9028974544
 20
18.4806061059
 10
78.8982900826
 20
18.4707904008
 10
78.8944839928
 20
18.4602735738
 10
78.8915793454
 20
18.4488553046
 10
78.88947598
 20
18.4365355931
 10
78.8881738967
 20
18.4234145995
 10
78.8877732557
 20
18.4094923238
  0
LWPOLYLINE
  5
166
330
1F
100
AcDbEntity
  8
0
  6
Continuous
 62
     7
100
AcDbPolyline
 90
       76
 70
   128
 43
0.0
 10
79.5928835869
 20
18.2268000161
 10
79.4903373582
 20
18.2268000161
 10
79.4903373582
 20
18.2268000161
 10
79.4903373582
 20
18.4143000161
 10
79.4903373582
 20
18.4143000161
 10
79.490237198
 20
18.4285227726
 10
79.4899367172
 20
18.4414434456
 10
79.4895360762
 20
18.4529618751
 10
79.4888349544
 20
18.4632783815
 10
79.4880336723
 20
18.4721926444
 10
79.4869319095
 20
18.4799049841
 10
79.4857299864
 20
18.4862150802
 10
79.4843277428
 20
18.4912230931
 10
79.4809222941
 20
18.4995363944
 10
79.4765152428
 20
18.5067479328
 10
79.4712067493
 20
18.513058029
 10
79.4649968134
 20
18.5183665226
 10
79.4579855954
 20
18.5225732533
 10
79.4501730954
 20
18.5256782213
 10
79.4417596339
 20
18.5274811059
 10
79.4326450505
 20
18.5280820674
 10
79.4326450505
 20
18.5280820674
 10
79.4208261403
 20
18.5271806251
 10
79.4097083518
 20
18.5246766187
 10
79.3990913646
 20
18.5202695674
 10
79.3891754993
 20
18.514259952
 10
79.3803613967
 20
18.5067479328
 10
79.3729495377
 20
18.498234311
 10
79.3671402428
 20
18.4884186059
 10
79.3628333518
 20
18.4776012982
 10
79.3611306275
 20
18.471291202
 10
79.3597283839
 20
18.4637791828
 10
79.3585264608
 20
18.4550652405
 10
79.3575248582
 20
18.4450492149
 10
79.3567235762
 20
18.4339314264
 10
79.3561226146
 20
18.4215115546
 10
79.3558221339
 20
18.40798992
 10
79.3557219736
 20
18.393166202
 10
79.3557219736
 20
18.393166202
 10
79.3557219736
 20
18.2268000161
 10
79.3557219736
 20
18.2268000161
 10
79.253157871
 20
18.2268000161
 10
79.253157871
 20
18.2268000161
 10
79.253157871
 20
18.5921846315
 10
79.253157871
 20
18.5921846315
 10
79.3557219736
 20
18.5921846315
 10
79.3557219736
 20
18.5921846315
 10
79.3557219736
 20
18.5395003367
 10
79.3557219736
 20
18.5395003367
 10
79.3677412044
 20
18.553322452
 10
79.3805617172
 20
18.5653416828
 10
79.3940833518
 20
18.575558029
 10
79.4084062685
 20
18.5838713302
 10
79.4234303069
 20
18.5902815867
 10
79.4392556275
 20
18.5948889585
 10
79.4557820698
 20
18.5976934456
 10
79.4731097941
 20
18.5985948879
 10
79.4731097941
 20
18.5985948879
 10
79.4884343134
 20
18.5978937661
 10
79.5030577108
 20
18.5956902405
 10
79.5169799864
 20
18.5920844713
 10
79.5302011403
 20
18.5870764585
 10
79.5423205313
 20
18.5809666828
 10
79.5529375185
 20
18.5740556251
 10
79.5618517813
 20
18.5663432854
 10
79.5692636403
 20
18.5578296636
 10
79.5753734159
 20
18.54861492
 10
79.580481589
 20
18.5388993751
 10
79.5845881595
 20
18.5284827085
 10
79.5876931275
 20
18.5174650802
 10
79.5899968134
 20
18.5049450482
 10
79.5915993775
 20
18.49002117
 10
79.59260098
 20
18.4725932854
 10
79.5929014608
 20
18.4527615546
 10
79.5929014608
 20
18.4527615546
 10
79.5929014608
 20
18.2268000161
  0
LWPOLYLINE
  5
167
330
1F
100
AcDbEntity
  8
0
  6
Continuous
 62
     7
100
AcDbPolyline
 90
       71
 70
   128
 43
0.0
 10
79.874932766
 20
18.5921846315
 10
79.8749527428
 20
18.521671811
 10
79.8749527428
 20
18.521671811
 10
79.8044399223
 20
18.521671811
 10
79.8044399223
 20
18.521671811
 10
79.8044399223
 20
18.364620529
 10
79.8044399223
 20
18.364620529
 10
79.8044399223
 20
18.35330242
 10
79.8045400826
 20
18.3432863944
 10
79.8047404031
 20
18.3344722918
 10
79.8049407236
 20
18.3268601123
 10
79.8051410441
 20
18.3205500161
 10
79.8055416851
 20
18.3154418431
 10
79.8059423262
 20
18.3116357533
 10
79.8063429672
 20
18.3090315867
 10
79.8095480954
 20
18.3019202085
 10
79.8151570698
 20
18.2960107533
 10
79.818762839
 20
18.2938072277
 10
79.8227692493
 20
18.2922046636
 10
79.8271763005
 20
18.291203061
 10
79.8318838326
 20
18.2909025802
 10
79.8318838326
 20
18.2909025802
 10
79.8395961723
 20
18.2915035418
 10
79.8488109159
 20
18.2932062661
 10
79.8595280634
 20
18.2961109136
 10
79.8717476146
 20
18.3001173238
 10
79.8717476146
 20
18.3001173238
 10
79.8813629993
 20
18.2331101123
 10
79.8813629993
 20
18.2331101123
 10
79.8631338326
 20
18.2275011379
 10
79.8437027428
 20
18.2235948879
 10
79.82306973
 20
18.2211910418
 10
79.8012347941
 20
18.2203897597
 10
79.8012347941
 20
18.2203897597
 10
79.7878133198
 20
18.2209907213
 10
79.7751931275
 20
18.2225932854
 10
79.7630737364
 20
18.2253977726
 10
79.7517556275
 20
18.2293040226
 10
79.741439121
 20
18.2341117149
 10
79.7326250185
 20
18.2395203687
 10
79.7253133198
 20
18.2456301444
 10
79.7194038646
 20
18.2523408815
 10
79.7145961723
 20
18.2600532213
 10
79.7106899223
 20
18.2690676444
 10
79.7074847941
 20
18.2791838302
 10
79.705080948
 20
18.2906020995
 10
79.705080948
 20
18.2906020995
 10
79.7043798262
 20
18.2954097918
 10
79.7036787044
 20
18.3013192469
 10
79.7031779031
 20
18.3083304649
 10
79.7026771018
 20
18.3164434456
 10
79.702376621
 20
18.3256581892
 10
79.7020761403
 20
18.3359746956
 10
79.70197598
 20
18.3472928046
 10
79.7018758198
 20
18.3598128367
 10
79.7018758198
 20
18.3598128367
 10
79.7018758198
 20
18.521671811
 10
79.7018758198
 20
18.521671811
 10
79.6570040249
 20
18.521671811
 10
79.6570040249
 20
18.521671811
 10
79.6570040249
 20
18.5921846315
 10
79.6570040249
 20
18.5921846315
 10
79.7018758198
 20
18.5921846315
 10
79.7018758198
 20
18.5921846315
 10
79.7018758198
 20
18.662697452
 10
79.7018758198
 20
18.662697452
 10
79.8044399223
 20
18.7203897597
 10
79.8044399223
 20
18.7203897597
 10
79.8044399223
 20
18.5921846315
 10
79.8044399223
 20
18.5921846315
 10
79.8749527428
 20
18.5921846315
  0
LWPOLYLINE
  5
168
330
1F
100
AcDbEntity
  8
0
  6
Continuous
 62
     7
100
AcDbPolyline
 90
       14
 70
   128
 43
0.0
 10
80.4688930511
 20
18.2268000161
 10
80.2852091531
 20
18.7268000161
 10
80.2852091531
 20
18.7268000161
 10
80.3940833518
 20
18.7268000161
 10
80.3940833518
 20
18.7268000161
 10
80.5255937685
 20
18.3550051444
 10
80.5255937685
 20
18.3550051444
 10
80.6572043454
 20
18.7268000161
 10
80.6572043454
 20
18.7268000161
 10
80.7659783839
 20
18.7268000161
 10
80.7659783839
 20
18.7268000161
 10
80.5753734159
 20
18.2268000161
 10
80.5753734159
 20
18.2268000161
 10
80.4689030634
 20
18.2268000161
  0
LWPOLYLINE
  5
169
330
1F
100
AcDbEntity
  8
0
  6
Continuous
 62
     7
100
AcDbPolyline
 90
        8
 70
   128
 43
0.0
 10
80.8172225952
 20
18.6434666828
 10
80.8172604351
 20
18.7268000161
 10
80.8172604351
 20
18.7268000161
 10
80.9198245377
 20
18.7268000161
 10
80.9198245377
 20
18.7268000161
 10
80.9198245377
 20
18.6434666828
 10
80.9198245377
 20
18.6434666828
 10
80.8172604351
 20
18.6434666828
  0
LWPOLYLINE
  5
16A
330
1F
100
AcDbEntity
  8
0
  6
Continuous
 62
     7
100
AcDbPolyline
 90
        8
 70
   128
 43
0.0
 10
80.8172225952
 20
18.2268000161
 10
80.8172604351
 20
18.5921846315
 10
80.8172604351
 20
18.5921846315
 10
80.9198245377
 20
18.5921846315
 10
80.9198245377
 20
18.5921846315
 10
80.9198245377
 20
18.2268000161
 10
80.9198245377
 20
18.2268000161
 10
80.8172604351
 20
18.2268000161
  0
LWPOLYLINE
  5
16B
330
1F
100
AcDbEntity
  8
0
  6
Continuous
 62
     7
100
AcDbPolyline
 90
       99
 70
   128
 43
0.0
 10
81.2339186668
 20
18.3421846315
 10
81.3364912044
 20
18.3293641187
 10
81.3364912044
 20
18.3293641187
 10
81.3313830313
 20
18.3164434456
 10
81.3255737364
 20
18.3043240546
 10
81.3190633198
 20
18.2930059456
 10
81.3118517813
 20
18.2824891187
 10
81.303939121
 20
18.2726734136
 10
81.295325339
 20
18.2637591508
 10
81.2861105954
 20
18.2555460097
 10
81.2760945698
 20
18.248234311
 10
81.2654775826
 20
18.2417238944
 10
81.2541594736
 20
18.2360147597
 10
81.2422404031
 20
18.2313072277
 10
81.2296202108
 20
18.2274009777
 10
81.2163990569
 20
18.2242960097
 10
81.2025769416
 20
18.2220924841
 10
81.1880537044
 20
18.2207904008
 10
81.1728293454
 20
18.2203897597
 10
81.1728293454
 20
18.2203897597
 10
81.1490913646
 20
18.2213913623
 10
81.126955948
 20
18.2242960097
 10
81.1064230954
 20
18.229103702
 10
81.0873926467
 20
18.2358144392
 10
81.0700649223
 20
18.2445283815
 10
81.0542396018
 20
18.2551453687
 10
81.0401170057
 20
18.2676654008
 10
81.0274968134
 20
18.2820884777
 10
81.0274968134
 20
18.2820884777
 10
81.018782871
 20
18.2948088302
 10
81.0112708518
 20
18.3084306251
 10
81.0048605954
 20
18.3227535418
 10
80.9996522621
 20
18.3379779008
 10
80.9955456916
 20
18.3539033815
 10
80.9926410441
 20
18.3707303046
 10
80.9909383198
 20
18.3883585097
 10
80.9903373582
 20
18.4067879969
 10
80.9903373582
 20
18.4067879969
 10
80.9911386403
 20
18.4286229328
 10
80.9934423262
 20
18.4493561059
 10
80.9972484159
 20
18.4687871956
 10
81.0025569095
 20
18.4870163623
 10
81.0094679672
 20
18.5039434456
 10
81.0178814287
 20
18.5197687661
 10
81.0277972941
 20
18.5342920033
 10
81.0393157236
 20
18.5476133174
 10
81.0520360762
 20
18.5595323879
 10
81.0654575505
 20
18.5699490546
 10
81.0797804672
 20
18.5786629969
 10
81.0949046659
 20
18.5858745354
 10
81.1108301467
 20
18.5913833495
 10
81.1275569095
 20
18.5953897597
 10
81.1450849544
 20
18.5977936059
 10
81.1634142813
 20
18.5985948879
 10
81.1634142813
 20
18.5985948879
 10
81.1839471339
 20
18.5977936059
 10
81.2032780634
 20
18.5952895995
 10
81.2216073903
 20
18.5910828687
 10
81.2387347941
 20
18.5851734136
 10
81.2548605954
 20
18.5776613944
 10
81.2697844736
 20
18.5684466508
 10
81.283606589
 20
18.5575291828
 10
81.2963269416
 20
18.5449089905
 10
81.3077452108
 20
18.5305860738
 10
81.3174607557
 20
18.5145604328
 10
81.3256738967
 20
18.4967319072
 10
81.3322844736
 20
18.4771004969
 10
81.3372924864
 20
18.455666202
 10
81.3407980954
 20
18.4324290226
 10
81.34260098
 20
18.4073889585
 10
81.3429014608
 20
18.38064617
 10
81.3429014608
 20
18.38064617
 10
81.0929014608
 20
18.38064617
 10
81.0929014608
 20
18.38064617
 10
81.0935024223
 20
18.3703296636
 10
81.0947043454
 20
18.3606141187
 10
81.0967075505
 20
18.3513993751
 10
81.0993117172
 20
18.3428857533
 10
81.1025168454
 20
18.3348729328
 10
81.1064230954
 20
18.3275612341
 10
81.1110304672
 20
18.3207503367
 10
81.1163389608
 20
18.3145404008
 10
81.1221482557
 20
18.3090315867
 10
81.1282580313
 20
18.3042238944
 10
81.1346682877
 20
18.3001173238
 10
81.1415793454
 20
18.2968120354
 10
81.1486907236
 20
18.2942078687
 10
81.1562027428
 20
18.2924049841
 10
81.1640152428
 20
18.2913032213
 10
81.1722283839
 20
18.2909025802
 10
81.1722283839
 20
18.2909025802
 10
81.1831458518
 20
18.2917038623
 10
81.1931618775
 20
18.2939073879
 10
81.2022764608
 20
18.2977134777
 10
81.2104896018
 20
18.3030219713
 10
81.2178013005
 20
18.3100331892
 10
81.2241113967
 20
18.318947452
 10
81.2295200505
 20
18.3296645995
 10
81.2339271018
 20
18.3421846315
  0
LWPOLYLINE
  5
16C
330
1F
100
AcDbEntity
  8
0
  6
Continuous
 62
     7
100
AcDbPolyline
 90
       37
 70
   128
 43
0.0
 10
81.2402963638
 20
18.4383384777
 10
81.2397363967
 20
18.4489554649
 10
81.2386346339
 20
18.4589714905
 10
81.2368317493
 20
18.4683865546
 10
81.2344279031
 20
18.4770003367
 10
81.2313229351
 20
18.4850131572
 10
81.2277171659
 20
18.4924250161
 10
81.2234102749
 20
18.4991357533
 10
81.2185024223
 20
18.5051453687
 10
81.2131939287
 20
18.5105540226
 10
81.2074847941
 20
18.5151613944
 10
81.201575339
 20
18.5191678046
 10
81.1954655634
 20
18.5223729328
 10
81.1889551467
 20
18.5248769392
 10
81.1821442493
 20
18.5266798238
 10
81.1751330313
 20
18.5276814264
 10
81.1678213326
 20
18.5280820674
 10
81.1678213326
 20
18.5280820674
 10
81.1600088326
 20
18.5276814264
 10
81.1524968134
 20
18.5265796636
 10
81.1453854351
 20
18.5246766187
 10
81.138674698
 20
18.522072452
 10
81.1322644416
 20
18.5186670033
 10
81.1261546659
 20
18.5144602726
 10
81.1204455313
 20
18.50955242
 10
81.1150368775
 20
18.5039434456
 10
81.1150368775
 20
18.5039434456
 10
81.1102291851
 20
18.4976333495
 10
81.1060224544
 20
18.490822452
 10
81.1024166851
 20
18.4834105931
 10
81.099612198
 20
18.4754979328
 10
81.0973085121
 20
18.466984311
 10
81.0958061082
 20
18.4579698879
 10
81.0949046659
 20
18.4484546636
 10
81.0946041851
 20
18.4383384777
 10
81.0946041851
 20
18.4383384777
 10
81.2403373582
 20
18.4383384777
  0
LWPOLYLINE
  5
16D
330
1F
100
AcDbEntity
  8
0
  6
Continuous
 62
     7
100
AcDbPolyline
 90
       26
 70
   128
 43
0.0
 10
81.4893841743
 20
18.2268000161
 10
81.3685424864
 20
18.5921846315
 10
81.3685424864
 20
18.5921846315
 10
81.466799698
 20
18.5921846315
 10
81.466799698
 20
18.5921846315
 10
81.5384142813
 20
18.3527014585
 10
81.5384142813
 20
18.3527014585
 10
81.6050208518
 20
18.5921846315
 10
81.6050208518
 20
18.5921846315
 10
81.7041795057
 20
18.5921846315
 10
81.7041795057
 20
18.5921846315
 10
81.7691835121
 20
18.3527014585
 10
81.7691835121
 20
18.3527014585
 10
81.8409984159
 20
18.5921846315
 10
81.8409984159
 20
18.5921846315
 10
81.9390553069
 20
18.5921846315
 10
81.9390553069
 20
18.5921846315
 10
81.818362198
 20
18.2268000161
 10
81.818362198
 20
18.2268000161
 10
81.7210064287
 20
18.2268000161
 10
81.7210064287
 20
18.2268000161
 10
81.6537988967
 20
18.4617759777
 10
81.6537988967
 20
18.4617759777
 10
81.588294089
 20
18.2268000161
 10
81.588294089
 20
18.2268000161
 10
81.4894359159
 20
18.2268000161
  0
LWPOLYLINE
  5
16E
330
1F
100
AcDbEntity
  8
0
  6
Continuous
 62
     7
100
AcDbPolyline
 90
      141
 70
   128
 43
0.0
 10
79.5913338661
 20
19.700213366
 10
79.5592957078
 20
19.6970082378
 10
79.5592957078
 20
19.6970082378
 10
79.5568417815
 20
19.7052213788
 10
79.553887054
 20
19.7122325968
 10
79.5504816053
 20
19.7180418917
 10
79.5466254354
 20
19.7226492635
 10
79.5466254354
 20
19.7226492635
 10
79.5431198264
 20
19.7256540712
 10
79.5394138969
 20
19.7282582378
 10
79.5355076469
 20
19.7304617635
 10
79.5314010764
 20
19.7322646481
 10
79.5270941854
 20
19.7336668917
 10
79.522637054
 20
19.7346684942
 10
79.5179295219
 20
19.7352694558
 10
79.5130216694
 20
19.7354697763
 10
79.5130216694
 20
19.7354697763
 10
79.5051590892
 20
19.7350190551
 10
79.4975469097
 20
19.7336168115
 10
79.490235211
 20
19.7313131256
 10
79.4832239931
 20
19.7280579173
 10
79.4832239931
 20
19.7280579173
 10
79.4764130956
 20
19.7226993436
 10
79.4702532399
 20
19.7162390071
 10
79.4647444258
 20
19.7086769077
 10
79.4598365732
 20
19.7000130455
 10
79.4576831277
 20
19.6951552731
 10
79.4558301629
 20
19.6896965391
 10
79.4542275988
 20
19.6836368436
 10
79.4528754354
 20
19.6770262667
 10
79.4518237527
 20
19.6698648083
 10
79.4510725508
 20
19.6621023885
 10
79.4505717495
 20
19.6537390071
 10
79.4503213488
 20
19.6448247442
 10
79.4503213488
 20
19.6448247442
 10
79.4565813649
 20
19.6526372442
 10
79.4635425027
 20
19.6593980615
 10
79.471104602
 20
19.665057116
 10
79.4793678232
 20
19.6696644878
 10
79.4880817655
 20
19.6732201769
 10
79.4969459482
 20
19.6757742635
 10
79.5060605315
 20
19.6772766673
 10
79.5153754354
 20
19.6777774686
 10
79.5153754354
 20
19.6777774686
 10
79.523438336
 20
19.6774269077
 10
79.531250836
 20
19.676375225
 10
79.5387127751
 20
19.6745723404
 10
79.5458742335
 20
19.6721184141
 10
79.552735211
 20
19.6689132859
 10
79.5592456277
 20
19.665057116
 10
79.5655056437
 20
19.6604497442
 10
79.5714150988
 20
19.6551412506
 10
79.5768237527
 20
19.6492818756
 10
79.5815312847
 20
19.6430218596
 10
79.585537695
 20
19.6363111224
 10
79.5887929033
 20
19.6291997442
 10
79.5912969097
 20
19.621687725
 10
79.5930997944
 20
19.6137750647
 10
79.5942015572
 20
19.6054116833
 10
79.5945521181
 20
19.5966476609
 10
79.5945521181
 20
19.5966476609
 10
79.5938509963
 20
19.5850791513
 10
79.5918477911
 20
19.5739613628
 10
79.5884423424
 20
19.5631941353
 10
79.5836847303
 20
19.5528776288
 10
79.5808301629
 20
19.5479697763
 10
79.5777752751
 20
19.5433624045
 10
79.5744199065
 20
19.5390555135
 10
79.5708642174
 20
19.5349990231
 10
79.5670080476
 20
19.5312930936
 10
79.562901477
 20
19.5278375647
 10
79.5585445059
 20
19.5247325968
 10
79.5539371341
 20
19.5218780295
 10
79.5491294418
 20
19.5193740231
 10
79.5441715091
 20
19.5171704974
 10
79.5390132559
 20
19.5153175327
 10
79.5337548424
 20
19.5138151288
 10
79.5282961085
 20
19.5126132058
 10
79.5226871341
 20
19.5117618436
 10
79.5168778392
 20
19.5112610423
 10
79.5109683841
 20
19.5111108019
 10
79.5109683841
 20
19.5111108019
 10
79.5009523585
 20
19.5115615231
 10
79.4914371341
 20
19.5128636064
 10
79.4823726309
 20
19.5150671321
 10
79.4737588488
 20
19.5181220199
 10
79.4656458681
 20
19.5220282699
 10
79.4579836085
 20
19.5268359622
 10
79.4508221501
 20
19.5325450968
 10
79.4441114129
 20
19.5391055936
 10
79.4380517174
 20
19.5466676929
 10
79.432793304
 20
19.5553816353
 10
79.4283862527
 20
19.5651973404
 10
79.4247304033
 20
19.5761648885
 10
79.4219259161
 20
19.5882842795
 10
79.4198726309
 20
19.6015054333
 10
79.4186707078
 20
19.6158784301
 10
79.4182700668
 20
19.6313531897
 10
79.4182700668
 20
19.6313531897
 10
79.418370227
 20
19.6401672923
 10
79.4187207879
 20
19.6487309942
 10
79.4192716694
 20
19.6569441353
 10
79.4200729514
 20
19.6648567955
 10
79.421074554
 20
19.672468975
 10
79.4223265572
 20
19.6797806737
 10
79.4237788809
 20
19.6867418115
 10
79.4254816053
 20
19.6934525487
 10
79.4273846501
 20
19.699812725
 10
79.4295380956
 20
19.7059225006
 10
79.4318918617
 20
19.7116817154
 10
79.4344960283
 20
19.7171404494
 10
79.4373005155
 20
19.7222987026
 10
79.4403554033
 20
19.727156475
 10
79.4436106117
 20
19.7316636865
 10
79.4471162206
 20
19.7359204974
 10
79.4471162206
 20
19.7359204974
 10
79.4536767174
 20
19.7425811545
 10
79.4607880956
 20
19.7483403692
 10
79.4684503553
 20
19.7532482218
 10
79.4766634963
 20
19.7572045519
 10
79.4854275187
 20
19.7603095199
 10
79.4946923424
 20
19.7625631256
 10
79.5045581277
 20
19.763865209
 10
79.5149247142
 20
19.7643159301
 10
79.5149247142
 20
19.7643159301
 10
79.5226871341
 20
19.7640655295
 10
79.5300989931
 20
19.7632642474
 10
79.537110211
 20
19.761912084
 10
79.5438209482
 20
19.7600591192
 10
79.5501310444
 20
19.7576552731
 10
79.5560905796
 20
19.7547506256
 10
79.561699554
 20
19.7512950968
 10
79.5669579674
 20
19.7472886865
 10
79.5717656597
 20
19.7428315551
 10
79.5761226309
 20
19.7379737827
 10
79.5799287206
 20
19.7326652891
 10
79.5832340091
 20
19.7270062346
 10
79.5860384963
 20
19.720896459
 10
79.588292102
 20
19.7144361224
 10
79.5900949867
 20
19.7075250647
 10
79.5913469899
 20
19.700213366
  0
LWPOLYLINE
  5
16F
330
1F
100
AcDbEntity
  8
0
  6
Continuous
 62
     7
100
AcDbPolyline
 90
       64
 70
   128
 43
0.0
 10
79.4503092766
 20
19.5972987026
 10
79.4508221501
 20
19.5897866833
 10
79.4522243937
 20
19.5824749846
 10
79.4546282399
 20
19.5752634462
 10
79.4579836085
 20
19.5682522282
 10
79.4621903392
 20
19.5617418115
 10
79.4669980315
 20
19.5560827571
 10
79.4725068456
 20
19.5512249846
 10
79.4786667014
 20
19.5471684942
 10
79.4854275187
 20
19.5440134462
 10
79.4926390572
 20
19.5417598404
 10
79.5003013168
 20
19.5404076769
 10
79.5084643777
 20
19.5399569558
 10
79.5084643777
 20
19.5399569558
 10
79.5142736726
 20
19.5402073564
 10
79.5197824867
 20
19.5409084782
 10
79.5250409001
 20
19.5420603212
 10
79.5300489129
 20
19.5437129654
 10
79.534756445
 20
19.5458163308
 10
79.5392135764
 20
19.5483704173
 10
79.5434203072
 20
19.5514253051
 10
79.5473265572
 20
19.5549309141
 10
79.5508822463
 20
19.5588371641
 10
79.5539872142
 20
19.563093975
 10
79.5565913809
 20
19.5676512667
 10
79.5586947463
 20
19.5726091994
 10
79.5603473905
 20
19.5778676128
 10
79.5615493136
 20
19.5834265071
 10
79.5622504354
 20
19.5893860423
 10
79.562500836
 20
19.5956460583
 10
79.562500836
 20
19.5956460583
 10
79.5622504354
 20
19.6016556737
 10
79.5615493136
 20
19.6073648083
 10
79.5603974706
 20
19.6127734622
 10
79.5587448264
 20
19.617781475
 10
79.556641461
 20
19.6224890071
 10
79.5540873745
 20
19.6268960583
 10
79.5510324867
 20
19.6309525487
 10
79.5475268777
 20
19.6346584782
 10
79.5436206277
 20
19.6380138468
 10
79.5394138969
 20
19.6409184942
 10
79.5348566053
 20
19.6433724205
 10
79.5299487527
 20
19.6453756256
 10
79.5247404194
 20
19.6469281096
 10
79.5191815251
 20
19.6480298724
 10
79.5133221501
 20
19.6487309942
 10
79.5071122142
 20
19.6489313147
 10
79.5071122142
 20
19.6489313147
 10
79.5013029194
 20
19.6487309942
 10
79.495693945
 20
19.6480298724
 10
79.4903353713
 20
19.6469281096
 10
79.4851771181
 20
19.6453756256
 10
79.4802692655
 20
19.6433724205
 10
79.4755617335
 20
19.6409184942
 10
79.471104602
 20
19.6380138468
 10
79.4668477911
 20
19.6346584782
 10
79.4629916213
 20
19.6309525487
 10
79.4596362527
 20
19.6269962186
 10
79.4567816854
 20
19.6227394077
 10
79.4544779995
 20
19.6182321962
 10
79.4526250347
 20
19.6133744237
 10
79.4513730315
 20
19.6083163308
 10
79.4505717495
 20
19.6029577571
 10
79.4503213488
 20
19.5972987026
  0
LWPOLYLINE
  5
170
330
1F
100
AcDbEntity
  8
0
  6
Continuous
 62
     7
100
AcDbPolyline
 90
      130
 70
   128
 43
0.0
 10
79.7337889671
 20
19.5143159301
 10
79.7338249546
 20
19.6970082378
 10
79.7338249546
 20
19.6970082378
 10
79.7658762367
 20
19.6970082378
 10
79.7658762367
 20
19.6970082378
 10
79.7658762367
 20
19.6685126449
 10
79.7658762367
 20
19.6685126449
 10
79.7705336886
 20
19.6753235423
 10
79.7758922623
 20
19.6813832378
 10
79.7820020379
 20
19.6867918917
 10
79.7887628553
 20
19.6914994237
 10
79.7961747142
 20
19.6953055135
 10
79.8040873745
 20
19.6980599205
 10
79.8124507559
 20
19.6996624846
 10
79.8213650187
 20
19.700213366
 10
79.8213650187
 20
19.700213366
 10
79.8310805636
 20
19.6996624846
 10
79.839844586
 20
19.6979597603
 10
79.8477071661
 20
19.6951552731
 10
79.854668304
 20
19.6912490231
 10
79.8606779194
 20
19.6863411705
 10
79.8657860924
 20
19.6805819558
 10
79.8698926629
 20
19.6738712186
 10
79.873047711
 20
19.6663091192
 10
79.873047711
 20
19.6663091192
 10
79.878907086
 20
19.6742718596
 10
79.885167102
 20
19.6811328372
 10
79.8918277591
 20
19.6869922122
 10
79.8989391373
 20
19.6917498244
 10
79.9065012367
 20
19.6954557538
 10
79.914463977
 20
19.6981100006
 10
79.9228273585
 20
19.6996624846
 10
79.931641461
 20
19.700213366
 10
79.931641461
 20
19.700213366
 10
79.9385024386
 20
19.6999629654
 10
79.9449627751
 20
19.6992618436
 10
79.9509723905
 20
19.6981100006
 10
79.956631445
 20
19.6964573564
 10
79.9618397783
 20
19.694353991
 10
79.9666474706
 20
19.6917999045
 10
79.9710545219
 20
19.6887450167
 10
79.9750609322
 20
19.6852394077
 10
79.9786166213
 20
19.6812329974
 10
79.9817215892
 20
19.6767257859
 10
79.9843257559
 20
19.6717177731
 10
79.9864291213
 20
19.666208959
 10
79.9880817655
 20
19.6601993436
 10
79.9892836886
 20
19.6536889269
 10
79.9899848104
 20
19.6466276288
 10
79.990235211
 20
19.6391156096
 10
79.990235211
 20
19.6391156096
 10
79.990235211
 20
19.5143159301
 10
79.990235211
 20
19.5143159301
 10
79.958183929
 20
19.5143159301
 10
79.958183929
 20
19.5143159301
 10
79.958183929
 20
19.6272966994
 10
79.958183929
 20
19.6272966994
 10
79.9579836085
 20
19.635760241
 10
79.9573826469
 20
19.6429717795
 10
79.9564311245
 20
19.6488812346
 10
79.9550288809
 20
19.6535386865
 10
79.9531759161
 20
19.6573447763
 10
79.9506719097
 20
19.6608003051
 10
79.9475168617
 20
19.6638051128
 10
79.9437107719
 20
19.6664593596
 10
79.939453961
 20
19.6686128051
 10
79.9347965091
 20
19.6701652891
 10
79.9298385764
 20
19.6710667314
 10
79.9244800027
 20
19.6713672122
 10
79.9244800027
 20
19.6713672122
 10
79.9195721501
 20
19.6711668917
 10
79.9149146982
 20
19.6705659301
 10
79.9104074867
 20
19.6696144077
 10
79.9061506758
 20
19.6682121641
 10
79.9020941854
 20
19.6664593596
 10
79.8982880956
 20
19.6643059141
 10
79.8946322463
 20
19.6617518276
 10
79.8912267976
 20
19.6587971
 10
79.8881218296
 20
19.6554417314
 10
79.8854675828
 20
19.6515855615
 10
79.883213977
 20
19.6472285904
 10
79.8813610123
 20
19.6424709782
 10
79.8799086886
 20
19.6371624846
 10
79.8788570059
 20
19.63145335
 10
79.8782560444
 20
19.6252434141
 10
79.8780557238
 20
19.6185326769
 10
79.8780557238
 20
19.6185326769
 10
79.8780557238
 20
19.5143159301
 10
79.8780557238
 20
19.5143159301
 10
79.8460044418
 20
19.5143159301
 10
79.8460044418
 20
19.5143159301
 10
79.8460044418
 20
19.6308523885
 10
79.8460044418
 20
19.6308523885
 10
79.8459042815
 20
19.635760241
 10
79.8455036405
 20
19.6403175327
 10
79.844902679
 20
19.6446244237
 10
79.8440513168
 20
19.6485807538
 10
79.842949554
 20
19.6521865231
 10
79.8415973905
 20
19.6554918115
 10
79.8400449065
 20
19.6584966192
 10
79.8381919418
 20
19.6612009462
 10
79.8360885764
 20
19.6636047923
 10
79.8336847303
 20
19.6656580776
 10
79.8309303232
 20
19.6674108821
 10
79.8278754354
 20
19.6688131256
 10
79.8245200668
 20
19.6699148885
 10
79.8208642174
 20
19.6707161705
 10
79.8169078873
 20
19.6712169718
 10
79.8126009963
 20
19.6713672122
 10
79.8126009963
 20
19.6713672122
 10
79.8059904194
 20
19.6709665712
 10
79.7996302431
 20
19.6696644878
 10
79.7935204674
 20
19.6675611224
 10
79.7876610924
 20
19.6646063949
 10
79.7823025187
 20
19.6608503853
 10
79.7777953072
 20
19.6562930936
 10
79.7739892174
 20
19.6509345199
 10
79.7710344899
 20
19.6448247442
 10
79.7698325668
 20
19.6414192955
 10
79.7687808841
 20
19.6376132058
 10
79.7678794418
 20
19.6334565551
 10
79.76717832
 20
19.6289994237
 10
79.7665773585
 20
19.6240915712
 10
79.7661767174
 20
19.6188832378
 10
79.7659763969
 20
19.6133243436
 10
79.7658762367
 20
19.6073648083
 10
79.7658762367
 20
19.6073648083
 10
79.7658762367
 20
19.5143159301
 10
79.7658762367
 20
19.5143159301
 10
79.7338249546
 20
19.5143159301
  0
LWPOLYLINE
  5
171
330
1F
100
AcDbEntity
  8
0
  6
Continuous
 62
     7
100
AcDbPolyline
 90
       16
 70
   128
 43
0.0
 10
78.2896876335
 20
0.9536903297
 10
78.2897408743
 20
1.3703569964
 10
78.2897408743
 20
1.3703569964
 10
78.1358947204
 20
1.3703569964
 10
78.1358947204
 20
1.3703569964
 10
78.1358947204
 20
1.4536903297
 10
78.1358947204
 20
1.4536903297
 10
78.5461511307
 20
1.4536903297
 10
78.5461511307
 20
1.4536903297
 10
78.5461511307
 20
1.3703569964
 10
78.5461511307
 20
1.3703569964
 10
78.3923049769
 20
1.3703569964
 10
78.3923049769
 20
1.3703569964
 10
78.3923049769
 20
0.9536903297
 10
78.3923049769
 20
0.9536903297
 10
78.2897408743
 20
0.9536903297
  0
LWPOLYLINE
  5
172
330
1F
100
AcDbEntity
  8
0
  6
Continuous
 62
     7
100
AcDbPolyline
 90
       80
 70
   128
 43
0.0
 10
78.5846114159
 20
1.1414908105
 10
78.5850133102
 20
1.153409881
 10
78.586115073
 20
1.165128631
 10
78.5881182781
 20
1.176847381
 10
78.5908226051
 20
1.1884659707
 10
78.5942280538
 20
1.1998842399
 10
78.5984347845
 20
1.2113025092
 10
78.6034427974
 20
1.2226206181
 10
78.6092520922
 20
1.2338385669
 10
78.6157625089
 20
1.2446558746
 10
78.6228738871
 20
1.2548722207
 10
78.6305862269
 20
1.2643874451
 10
78.6389996884
 20
1.2732015476
 10
78.6480141115
 20
1.2814146887
 10
78.6577296563
 20
1.2889267079
 10
78.6680461628
 20
1.2957376053
 10
78.6789636307
 20
1.3019475412
 10
78.6903818999
 20
1.3074563553
 10
78.7022008102
 20
1.3122640476
 10
78.7143202012
 20
1.3162704579
 10
78.726740073
 20
1.3195757464
 10
78.7394604256
 20
1.322179913
 10
78.7525814192
 20
1.3239827976
 10
78.7660028935
 20
1.3250845605
 10
78.7797248487
 20
1.3254852015
 10
78.7797248487
 20
1.3254852015
 10
78.8007585025
 20
1.3246839194
 10
78.8207905538
 20
1.322179913
 10
78.8399211628
 20
1.3179731823
 10
78.8579500089
 20
1.3121638874
 10
78.8750774128
 20
1.3046518681
 10
78.8913033743
 20
1.2954371246
 10
78.906427573
 20
1.2846198169
 10
78.9206503294
 20
1.2720997848
 10
78.9335710025
 20
1.2583778297
 10
78.944688791
 20
1.243654272
 10
78.9542040153
 20
1.2281294323
 10
78.9619163551
 20
1.2118033105
 10
78.9679259704
 20
1.1944755861
 10
78.9722328615
 20
1.1763465797
 10
78.9747368679
 20
1.157316131
 10
78.9756383102
 20
1.1373842399
 10
78.9756383102
 20
1.1373842399
 10
78.9747368679
 20
1.1172520284
 10
78.9721327012
 20
1.0981214194
 10
78.9678258102
 20
1.0797920925
 10
78.9618161948
 20
1.0622640476
 10
78.9540036948
 20
1.0457376053
 10
78.9443883102
 20
1.0300124451
 10
78.9331703615
 20
1.0151887271
 10
78.9201495281
 20
1.0012664515
 10
78.9058266115
 20
0.9886462592
 10
78.8906022525
 20
0.977628631
 10
78.8744764512
 20
0.9684138874
 10
78.8575493679
 20
0.9608017079
 10
78.839620682
 20
0.9548922528
 10
78.8207905538
 20
0.950685522
 10
78.8011591435
 20
0.9480813553
 10
78.7805261307
 20
0.9472800733
 10
78.7805261307
 20
0.9472800733
 10
78.7547849448
 20
0.9486823169
 10
78.7296447204
 20
0.9528890476
 10
78.7051054576
 20
0.9599002656
 10
78.6811671563
 20
0.9697159707
 10
78.6697488871
 20
0.9757255861
 10
78.6589315794
 20
0.982336163
 10
78.6489155538
 20
0.9895477015
 10
78.6396006499
 20
0.9974603617
 10
78.6308867076
 20
1.0060741438
 10
78.6229740474
 20
1.0152888874
 10
78.6157625089
 20
1.0251045925
 10
78.6092520922
 20
1.0356214194
 10
78.6034427974
 20
1.0467392079
 10
78.5984347845
 20
1.0585581181
 10
78.5942280538
 20
1.0708778297
 10
78.5908226051
 20
1.0837985028
 10
78.5881182781
 20
1.0973201374
 10
78.586115073
 20
1.1114427335
 10
78.5850133102
 20
1.1261662912
 10
78.5846126692
 20
1.1414908105
  0
LWPOLYLINE
  5
173
330
1F
100
AcDbEntity
  8
0
  6
Continuous
 62
     7
100
AcDbPolyline
 90
       68
 70
   128
 43
0.0
 10
78.6871314049
 20
1.1363826374
 10
78.6875774128
 20
1.1224603617
 10
78.6888794961
 20
1.1093393681
 10
78.6909828615
 20
1.0970196566
 10
78.6938875089
 20
1.0856013874
 10
78.6976935987
 20
1.0750845605
 10
78.7023009704
 20
1.0652688553
 10
78.7077096243
 20
1.0563545925
 10
78.7140197204
 20
1.048341772
 10
78.7209307781
 20
1.0412303938
 10
78.7282424769
 20
1.0350204579
 10
78.7359548166
 20
1.0297119643
 10
78.7440677974
 20
1.0254050733
 10
78.7524812589
 20
1.0220997848
 10
78.7613955217
 20
1.0196959387
 10
78.7706102653
 20
1.0182936951
 10
78.7803258102
 20
1.0177928938
 10
78.7803258102
 20
1.0177928938
 10
78.7899411948
 20
1.0182936951
 10
78.7992560987
 20
1.0196959387
 10
78.8080702012
 20
1.0220997848
 10
78.8164836628
 20
1.0254050733
 10
78.8245966435
 20
1.0297119643
 10
78.832208823
 20
1.0350204579
 10
78.8395205217
 20
1.0412303938
 10
78.8463314192
 20
1.048341772
 10
78.8526415153
 20
1.0564547528
 10
78.8580501692
 20
1.0653690156
 10
78.862657541
 20
1.0751847207
 10
78.8663634704
 20
1.0858017079
 10
78.8692681179
 20
1.0973201374
 10
78.8713714833
 20
1.1097400092
 10
78.8726735666
 20
1.122961163
 10
78.8730742076
 20
1.1370837592
 10
78.8730742076
 20
1.1370837592
 10
78.8726735666
 20
1.1509058746
 10
78.8713714833
 20
1.1638265476
 10
78.8692681179
 20
1.1759459387
 10
78.8663634704
 20
1.1873642079
 10
78.862657541
 20
1.1977808746
 10
78.8580501692
 20
1.2074964194
 10
78.8526415153
 20
1.2164106823
 10
78.8463314192
 20
1.2244235028
 10
78.8395205217
 20
1.231534881
 10
78.832208823
 20
1.2377448169
 10
78.8245966435
 20
1.2430533105
 10
78.8164836628
 20
1.2473602015
 10
78.8080702012
 20
1.2506654899
 10
78.7992560987
 20
1.2530693361
 10
78.7899411948
 20
1.2544715797
 10
78.7803258102
 20
1.254972381
 10
78.7803258102
 20
1.254972381
 10
78.7706102653
 20
1.2544715797
 10
78.7613955217
 20
1.2530693361
 10
78.7524812589
 20
1.2506654899
 10
78.7440677974
 20
1.2473602015
 10
78.7359548166
 20
1.2430533105
 10
78.7282424769
 20
1.2377448169
 10
78.7209307781
 20
1.231534881
 10
78.7140197204
 20
1.2244235028
 10
78.7077096243
 20
1.2164106823
 10
78.7023009704
 20
1.2074964194
 10
78.6976935987
 20
1.1976807143
 10
78.6938875089
 20
1.1871638874
 10
78.6909828615
 20
1.1757456181
 10
78.6888794961
 20
1.1634259066
 10
78.6875774128
 20
1.150304913
 10
78.6871767717
 20
1.1363826374
  0
LWPOLYLINE
  5
174
330
1F
100
AcDbEntity
  8
0
  6
Continuous
 62
     7
100
AcDbPolyline
 90
       62
 70
   128
 43
0.0
 10
79.0525078773
 20
1.3190749451
 10
79.1551254897
 20
1.3190749451
 10
79.1551254897
 20
1.3190749451
 10
79.1551254897
 20
1.2663906502
 10
79.1551254897
 20
1.2663906502
 10
79.1645405538
 20
1.279211163
 10
79.175558182
 20
1.2907295925
 10
79.1879780538
 20
1.3007456181
 10
79.2020004897
 20
1.3094595605
 10
79.2172248487
 20
1.3164707784
 10
79.2331503294
 20
1.3214787912
 10
79.2499772525
 20
1.3244835989
 10
79.2675052974
 20
1.3254852015
 10
79.2675052974
 20
1.3254852015
 10
79.2829299769
 20
1.3246839194
 10
79.2977536948
 20
1.3223802335
 10
79.3119764512
 20
1.3185741438
 10
79.3255982461
 20
1.3131654899
 10
79.3386190794
 20
1.306154272
 10
79.3510389512
 20
1.2976406502
 10
79.3628578615
 20
1.2876246246
 10
79.3740758102
 20
1.2760060348
 10
79.3843923166
 20
1.2630853617
 10
79.3933065794
 20
1.2488626053
 10
79.4008185987
 20
1.2335380861
 10
79.4070285345
 20
1.2169114835
 10
79.4117360666
 20
1.1990829579
 10
79.4152416756
 20
1.1800525092
 10
79.4172448807
 20
1.1598201374
 10
79.4179460025
 20
1.1383858425
 10
79.4179460025
 20
1.1383858425
 10
79.4172448807
 20
1.1163505861
 10
79.4151415153
 20
1.095617413
 10
79.4115357461
 20
1.0761863233
 10
79.4066278935
 20
1.0579571566
 10
79.4002176371
 20
1.040929913
 10
79.3925052974
 20
1.0252047528
 10
79.3832905538
 20
1.0107816758
 10
79.3726735666
 20
0.997560522
 10
79.3610549769
 20
0.9857416117
 10
79.3488354256
 20
0.9755252656
 10
79.3360149128
 20
0.9669114835
 10
79.3225934384
 20
0.9599002656
 10
79.3085710025
 20
0.9543914515
 10
79.2940477653
 20
0.9503850412
 10
79.2788234063
 20
0.9480813553
 10
79.2629980858
 20
0.9472800733
 10
79.2629980858
 20
0.9472800733
 10
79.2480742076
 20
0.9479811951
 10
79.2338514512
 20
0.950284881
 10
79.2203298166
 20
0.9538906502
 10
79.2075093038
 20
0.9590989835
 10
79.1948891115
 20
0.9661102015
 10
79.1819684384
 20
0.9751246246
 10
79.1687472845
 20
0.9863425733
 10
79.1551254897
 20
0.9996638874
 10
79.1551254897
 20
0.9996638874
 10
79.1551254897
 20
0.8190749451
 10
79.1551254897
 20
0.8190749451
 10
79.0525613871
 20
0.8190749451
 10
79.0525613871
 20
0.8190749451
 10
79.0525613871
 20
1.3190749451
  0
LWPOLYLINE
  5
175
330
1F
100
AcDbEntity
  8
0
  6
Continuous
 62
     7
100
AcDbPolyline
 90
       68
 70
   128
 43
0.0
 10
79.155087471
 20
1.1425925733
 10
79.1555261307
 20
1.1271678938
 10
79.1566278935
 20
1.1127448169
 10
79.1585309384
 20
1.0994235028
 10
79.1611351051
 20
1.0871037912
 10
79.1645405538
 20
1.0757856823
 10
79.1686471243
 20
1.0655693361
 10
79.1735549769
 20
1.0563545925
 10
79.1791639512
 20
1.0482416117
 10
79.1853738871
 20
1.0411302335
 10
79.1918843038
 20
1.0349202976
 10
79.1987953615
 20
1.0297119643
 10
79.2059067397
 20
1.0254050733
 10
79.2134187589
 20
1.0220997848
 10
79.2213314192
 20
1.0196959387
 10
79.2294443999
 20
1.0182936951
 10
79.2379580217
 20
1.0177928938
 10
79.2379580217
 20
1.0177928938
 10
79.2460710025
 20
1.0181935348
 10
79.2538835025
 20
1.0194956181
 10
79.2612953615
 20
1.0216991438
 10
79.2684067397
 20
1.0248041117
 10
79.2751174769
 20
1.0287103617
 10
79.2815277333
 20
1.033518054
 10
79.2875373487
 20
1.0392271887
 10
79.2932464833
 20
1.0457376053
 10
79.2984548166
 20
1.0533497848
 10
79.3029620281
 20
1.0619635669
 10
79.3067681179
 20
1.071779272
 10
79.3098730858
 20
1.0826967399
 10
79.312276932
 20
1.0947159707
 10
79.3139796563
 20
1.1079371246
 10
79.3150814192
 20
1.122159881
 10
79.3153818999
 20
1.1375845605
 10
79.3153818999
 20
1.1375845605
 10
79.3149812589
 20
1.1520076374
 10
79.3139796563
 20
1.1654291117
 10
79.3121767717
 20
1.1779491438
 10
79.3096727653
 20
1.1894675733
 10
79.3064676371
 20
1.2000845605
 10
79.3025613871
 20
1.2096999451
 10
79.2979540153
 20
1.2183137271
 10
79.2926455217
 20
1.2260260669
 10
79.2868362269
 20
1.2328369643
 10
79.280626291
 20
1.2386462592
 10
79.274015714
 20
1.243654272
 10
79.2672048166
 20
1.2477608425
 10
79.2599932781
 20
1.2508658105
 10
79.2523810987
 20
1.2531694964
 10
79.2444684384
 20
1.2544715797
 10
79.2362552974
 20
1.254972381
 10
79.2362552974
 20
1.254972381
 10
79.2277416756
 20
1.2545717399
 10
79.2195285345
 20
1.2531694964
 10
79.2117160345
 20
1.2509659707
 10
79.2043041756
 20
1.2478610028
 10
79.1971927974
 20
1.2438545925
 10
79.1904820602
 20
1.2390469002
 10
79.184171964
 20
1.2332376053
 10
79.1781623487
 20
1.2266270284
 10
79.1727536948
 20
1.2191150092
 10
79.1680461628
 20
1.2107015476
 10
79.1641399128
 20
1.201486804
 10
79.1609347845
 20
1.1914707784
 10
79.1583306179
 20
1.1805533105
 10
79.1565277333
 20
1.1687344002
 10
79.1555261307
 20
1.1561142079
 10
79.1551254897
 20
1.1425925733
  0
LWPOLYLINE
  5
176
330
1F
100
AcDbEntity
  8
0
  6
Continuous
 62
     7
100
AcDbPolyline
 90
       14
 70
   128
 43
0.0
 10
80.0246596336
 20
0.9536903297
 10
79.8410229256
 20
1.4536903297
 10
79.8410229256
 20
1.4536903297
 10
79.9498971243
 20
1.4536903297
 10
79.9498971243
 20
1.4536903297
 10
80.081407541
 20
1.0818954579
 10
80.081407541
 20
1.0818954579
 10
80.2130181179
 20
1.4536903297
 10
80.2130181179
 20
1.4536903297
 10
80.3217921563
 20
1.4536903297
 10
80.3217921563
 20
1.4536903297
 10
80.1311871884
 20
0.9536903297
 10
80.1311871884
 20
0.9536903297
 10
80.0247168358
 20
0.9536903297
  0
LWPOLYLINE
  5
177
330
1F
100
AcDbEntity
  8
0
  6
Continuous
 62
     7
100
AcDbPolyline
 90
        8
 70
   128
 43
0.0
 10
80.3730487823
 20
1.3703569964
 10
80.3730742076
 20
1.4536903297
 10
80.3730742076
 20
1.4536903297
 10
80.4756383102
 20
1.4536903297
 10
80.4756383102
 20
1.4536903297
 10
80.4756383102
 20
1.3703569964
 10
80.4756383102
 20
1.3703569964
 10
80.3730742076
 20
1.3703569964
  0
LWPOLYLINE
  5
178
330
1F
100
AcDbEntity
  8
0
  6
Continuous
 62
     7
100
AcDbPolyline
 90
        8
 70
   128
 43
0.0
 10
80.3730487823
 20
0.9536903297
 10
80.3730742076
 20
1.3190749451
 10
80.3730742076
 20
1.3190749451
 10
80.4756383102
 20
1.3190749451
 10
80.4756383102
 20
1.3190749451
 10
80.4756383102
 20
0.9536903297
 10
80.4756383102
 20
0.9536903297
 10
80.3730742076
 20
0.9536903297
  0
LWPOLYLINE
  5
179
330
1F
100
AcDbEntity
  8
0
  6
Continuous
 62
     7
100
AcDbPolyline
 90
       99
 70
   128
 43
0.0
 10
80.7896852493
 20
1.0690749451
 10
80.8923049769
 20
1.0562544323
 10
80.8923049769
 20
1.0562544323
 10
80.8871968038
 20
1.0433337592
 10
80.8813875089
 20
1.0312143681
 10
80.8748770922
 20
1.0198962592
 10
80.8676655538
 20
1.0093794323
 10
80.8597528935
 20
0.9995637271
 10
80.8511391115
 20
0.9906494643
 10
80.8419243679
 20
0.9824363233
 10
80.8319083422
 20
0.9751246246
 10
80.8212913551
 20
0.9686142079
 10
80.8099732461
 20
0.9629050733
 10
80.7980541756
 20
0.9581975412
 10
80.7854339833
 20
0.9542912912
 10
80.7722128294
 20
0.9511863233
 10
80.758390714
 20
0.9489827976
 10
80.7438674769
 20
0.9476807143
 10
80.7286431179
 20
0.9472800733
 10
80.7286431179
 20
0.9472800733
 10
80.7049051371
 20
0.9482816758
 10
80.6827697204
 20
0.9511863233
 10
80.6622368679
 20
0.9559940156
 10
80.6432064192
 20
0.9627047528
 10
80.6258786948
 20
0.9714186951
 10
80.6100533743
 20
0.9820356823
 10
80.5959307781
 20
0.9945557143
 10
80.5833105858
 20
1.0089787912
 10
80.5833105858
 20
1.0089787912
 10
80.5745966435
 20
1.0216991438
 10
80.5670846243
 20
1.0353209387
 10
80.5606743679
 20
1.0496438553
 10
80.5554660345
 20
1.0648682143
 10
80.551359464
 20
1.0807936951
 10
80.5484548166
 20
1.0976206181
 10
80.5467520922
 20
1.1152488233
 10
80.5461511307
 20
1.1336783105
 10
80.5461511307
 20
1.1336783105
 10
80.5469524128
 20
1.1555132464
 10
80.5492560987
 20
1.1762464194
 10
80.5530621884
 20
1.1956775092
 10
80.558370682
 20
1.2139066758
 10
80.5652817397
 20
1.2308337592
 10
80.5736952012
 20
1.2466590797
 10
80.5836110666
 20
1.2611823169
 10
80.5951294961
 20
1.274503631
 10
80.6078498487
 20
1.2864227015
 10
80.621271323
 20
1.2968393681
 10
80.6355942397
 20
1.3055533105
 10
80.6507184384
 20
1.3127648489
 10
80.6666439192
 20
1.318273663
 10
80.683370682
 20
1.3222800733
 10
80.7008987269
 20
1.3246839194
 10
80.7192280538
 20
1.3254852015
 10
80.7192280538
 20
1.3254852015
 10
80.7397609063
 20
1.3246839194
 10
80.7590918358
 20
1.322179913
 10
80.7774211628
 20
1.3179731823
 10
80.7945485666
 20
1.3120637271
 10
80.8106743679
 20
1.3045517079
 10
80.8255982461
 20
1.2953369643
 10
80.8394203615
 20
1.2844194964
 10
80.852140714
 20
1.271799304
 10
80.8635589833
 20
1.2574763874
 10
80.8732745281
 20
1.2414507464
 10
80.8814876692
 20
1.2236222207
 10
80.8880982461
 20
1.2039908105
 10
80.8931062589
 20
1.1825565156
 10
80.8966118679
 20
1.1593193361
 10
80.8984147525
 20
1.134279272
 10
80.8987152333
 20
1.1075364835
 10
80.8987152333
 20
1.1075364835
 10
80.6487152333
 20
1.1075364835
 10
80.6487152333
 20
1.1075364835
 10
80.6493161948
 20
1.0972199771
 10
80.6505181179
 20
1.0875044323
 10
80.652521323
 20
1.0782896887
 10
80.6551254897
 20
1.0697760669
 10
80.6583306179
 20
1.0617632464
 10
80.6622368679
 20
1.0544515476
 10
80.6668442397
 20
1.0476406502
 10
80.6721527333
 20
1.0414307143
 10
80.6779620281
 20
1.0359219002
 10
80.6840718038
 20
1.0311142079
 10
80.6904820602
 20
1.0270076374
 10
80.6973931179
 20
1.0237023489
 10
80.7045044961
 20
1.0210981823
 10
80.7120165153
 20
1.0192952976
 10
80.7198290153
 20
1.0181935348
 10
80.7280421563
 20
1.0177928938
 10
80.7280421563
 20
1.0177928938
 10
80.7389596243
 20
1.0185941758
 10
80.7489756499
 20
1.0207977015
 10
80.7580902333
 20
1.0246037912
 10
80.7663033743
 20
1.0299122848
 10
80.773615073
 20
1.0369235028
 10
80.7799251692
 20
1.0458377656
 10
80.785333823
 20
1.056554913
 10
80.7897408743
 20
1.0690749451
  0
LWPOLYLINE
  5
17A
330
1F
100
AcDbEntity
  8
0
  6
Continuous
 62
     7
100
AcDbPolyline
 90
       37
 70
   128
 43
0.0
 10
80.796122551
 20
1.1652287912
 10
80.7955501692
 20
1.1758457784
 10
80.7944484063
 20
1.185861804
 10
80.7926455217
 20
1.1952768681
 10
80.7902416756
 20
1.2038906502
 10
80.7871367076
 20
1.2119034707
 10
80.7835309384
 20
1.2193153297
 10
80.7792240474
 20
1.2260260669
 10
80.7743161948
 20
1.2320356823
 10
80.7690077012
 20
1.2374443361
 10
80.7632985666
 20
1.2420517079
 10
80.7573891115
 20
1.2460581181
 10
80.7512793358
 20
1.2492632464
 10
80.7447689192
 20
1.2517672528
 10
80.7379580217
 20
1.2535701374
 10
80.7309468038
 20
1.2545717399
 10
80.7236351051
 20
1.254972381
 10
80.7236351051
 20
1.254972381
 10
80.7158226051
 20
1.2545717399
 10
80.7083105858
 20
1.2534699771
 10
80.7011992076
 20
1.2515669323
 10
80.6944884704
 20
1.2489627656
 10
80.688078214
 20
1.2455573169
 10
80.6819684384
 20
1.2413505861
 10
80.6762593038
 20
1.2364427335
 10
80.6708506499
 20
1.2308337592
 10
80.6708506499
 20
1.2308337592
 10
80.6660429576
 20
1.224523663
 10
80.6618362269
 20
1.2177127656
 10
80.6582304576
 20
1.2103009066
 10
80.6554259704
 20
1.2023882464
 10
80.6531222845
 20
1.1938746246
 10
80.6516198807
 20
1.1848602015
 10
80.6507184384
 20
1.1753449771
 10
80.6504179576
 20
1.1652287912
 10
80.6504179576
 20
1.1652287912
 10
80.7961511307
 20
1.1652287912
  0
LWPOLYLINE
  5
17B
330
1F
100
AcDbEntity
  8
0
  6
Continuous
 62
     7
100
AcDbPolyline
 90
       26
 70
   128
 43
0.0
 10
81.0452103615
 20
0.9536903297
 10
80.9243562589
 20
1.3190749451
 10
80.9243562589
 20
1.3190749451
 10
81.0226134704
 20
1.3190749451
 10
81.0226134704
 20
1.3190749451
 10
81.0942280538
 20
1.079591772
 10
81.0942280538
 20
1.079591772
 10
81.1608346243
 20
1.3190749451
 10
81.1608346243
 20
1.3190749451
 10
81.2599932781
 20
1.3190749451
 10
81.2599932781
 20
1.3190749451
 10
81.3249972845
 20
1.079591772
 10
81.3249972845
 20
1.079591772
 10
81.3968121884
 20
1.3190749451
 10
81.3968121884
 20
1.3190749451
 10
81.4948690794
 20
1.3190749451
 10
81.4948690794
 20
1.3190749451
 10
81.3741759704
 20
0.9536903297
 10
81.3741759704
 20
0.9536903297
 10
81.2768202012
 20
0.9536903297
 10
81.2768202012
 20
0.9536903297
 10
81.2096126692
 20
1.1886662912
 10
81.2096126692
 20
1.1886662912
 10
81.1441078615
 20
0.9536903297
 10
81.1441078615
 20
0.9536903297
 10
81.0452496884
 20
0.9536903297
  0
POINT
  5
17C
330
1F
100
AcDbEntity
  8
0
  6
Continuous
 62
     7
100
AcDbPoint
 10
85.7265433345
 20
9.1032993789
 30
0.0
  0
POINT
  5
17D
330
1F
100
AcDbEntity
  8
0
  6
Continuous
 62
     7
100
AcDbPoint
 10
85.2698205295
 20
11.3993999731
 30
0.0
  0
POINT
  5
17E
330
1F
100
AcDbEntity
  8
0
  6
Continuous
 62
     7
100
AcDbPoint
 10
83.9691840216
 20
13.3459400661
 30
0.0
  0
POINT
  5
17F
330
1F
100
AcDbEntity
  8
0
  6
Continuous
 62
     7
100
AcDbPoint
 10
82.0226439287
 20
14.646576574
 30
0.0
  0
POINT
  5
180
330
1F
100
AcDbEntity
  8
0
  6
Continuous
 62
     7
100
AcDbPoint
 10
79.7265433345
 20
15.1032993789
 30
0.0
  0
POINT
  5
181
330
1F
100
AcDbEntity
  8
0
  6
Continuous
 62
     7
100
AcDbPoint
 10
77.4304427403
 20
14.646576574
 30
0.0
  0
POINT
  5
182
330
1F
100
AcDbEntity
  8
0
  6
Continuous
 62
     7
100
AcDbPoint
 10
75.4839026474
 20
13.3459400661
 30
0.0
  0
POINT
  5
183
330
1F
100
AcDbEntity
  8
0
  6
Continuous
 62
     7
100
AcDbPoint
 10
74.1832661394
 20
11.3993999731
 30
0.0
  0
POINT
  5
184
330
1F
100
AcDbEntity
  8
0
  6
Continuous
 62
     7
100
AcDbPoint
 10
73.7265433345
 20
9.1032993789
 30
0.0
  0
POINT
  5
185
330
1F
100
AcDbEntity
  8
0
  6
Continuous
 62
     7
100
AcDbPoint
 10
74.1832661394
 20
6.8071987847
 30
0.0
  0
POINT
  5
186
330
1F
100
AcDbEntity
  8
0
  6
Continuous
 62
     7
100
AcDbPoint
 10
75.4839026474
 20
4.8606586918
 30
0.0
  0
POINT
  5
187
330
1F
100
AcDbEntity
  8
0
  6
Continuous
 62
     7
100
AcDbPoint
 10
77.4304427403
 20
3.5600221839
 30
0.0
  0
POINT
  5
188
330
1F
100
AcDbEntity
  8
0
  6
Continuous
 62
     7
100
AcDbPoint
 10
79.7265433345
 20
3.1032993789
 30
0.0
  0
POINT
  5
189
330
1F
100
AcDbEntity
  8
0
  6
Continuous
 62
     7
100
AcDbPoint
 10
82.0226439287
 20
3.5600221839
 30
0.0
  0
POINT
  5
18A
330
1F
100
AcDbEntity
  8
0
  6
Continuous
 62
     7
100
AcDbPoint
 10
83.9691840216
 20
4.8606586918
 30
0.0
  0
POINT
  5
18B
330
1F
100
AcDbEntity
  8
0
  6
Continuous
 62
     7
100
AcDbPoint
 10
85.2698205295
 20
6.8071987847
 30
0.0
  0
MTEXT
  5
18D
330
1F
100
AcDbEntity
  8
0
  6
Continuous
 62
     7
100
AcDbMText
 10
64.8585557938
 20
-0.2004914466
 30
0.0
 40
4.83362
 41
0.0
 71
     1
 72
     1
  1
SOLIDWORKS Educational Product.
  7
SLDTEXTSTYLE0
 73
     1
 44
1.0
  0
MTEXT
  5
18E
330
1F
100
AcDbEntity
  8
0
  6
Continuous
 62
     7
100
AcDbMText
 10
64.8585557938
 20
-7.4509214466
 30
0.0
 40
4.83362
 41
0.0
 71
     1
 72
     1
  1
For Instructional Use Only.
  7
SLDTEXTSTYLE0
 73
     1
 44
1.0
  0
ENDSEC
  0
SECTION
  2
OBJECTS
  0
DICTIONARY
  5
C
330
0
100
AcDbDictionary
281
     1
  3
ACAD_GROUP
350
D
  3
ACAD_LAYOUT
350
1A
  3
ACAD_MLINESTYLE
350
17
  3
ACAD_PLOTSETTINGS
350
19
  3
ACAD_PLOTSTYLENAME
350
E
  3
ACAD_SCALELIST
350
47
  0
DICTIONARY
  5
D
102
{ACAD_REACTORS
330
C
102
}
330
C
100
AcDbDictionary
281
     1
  0
DICTIONARY
  5
1A
102
{ACAD_REACTORS
330
C
102
}
330
C
100
AcDbDictionary
281
     1
  3
Layout1
350
1E
  3
Layout2
350
26
  3
Model
350
22
  0
DICTIONARY
  5
17
102
{ACAD_REACTORS
330
C
102
}
330
C
100
AcDbDictionary
281
     1
  3
Standard
350
18
  0
DICTIONARY
  5
19
102
{ACAD_REACTORS
330
C
102
}
330
C
100
AcDbDictionary
281
     1
  0
ACDBDICTIONARYWDFLT
  5
E
102
{ACAD_REACTORS
330
C
102
}
330
C
100
AcDbDictionary
281
     1
  3
Normal
350
F
100
AcDbDictionaryWithDefault
340
F
  0
DICTIONARY
  5
47
102
{ACAD_REACTORS
330
C
102
}
330
C
100
AcDbDictionary
281
     1
  3
A0
350
48
  3
A1
350
49
  3
A2
350
4A
  3
A3
350
4B
  3
A4
350
4C
  3
A5
350
4D
  3
A6
350
4E
  3
A7
350
4F
  3
A8
350
50
  3
A9
350
51
  3
B0
350
52
  3
B1
350
53
  3
B2
350
54
  3
B3
350
55
  3
B4
350
56
  3
B5
350
57
  3
B6
350
58
  3
B7
350
59
  3
B8
350
5A
  3
B9
350
5B
  3
C0
350
5C
  3
C1
350
5D
  3
C2
350
5E
  3
C3
350
5F
  3
C4
350
60
  3
C5
350
61
  3
C6
350
62
  3
C7
350
63
  3
C8
350
64
  3
C9
350
65
  3
D0
350
66
  3
D1
350
67
  3
D2
350
68
  0
LAYOUT
  5
1E
102
{ACAD_REACTORS
330
1A
102
}
330
1A
100
AcDbPlotSettings
  1

  2
none_device
  4

  6

 40
0.0
 41
0.0
 42
0.0
 43
0.0
 44
0.0
 45
0.0
 46
0.0
 47
0.0
 48
0.0
 49
0.0
140
0.0
141
0.0
142
1.0
143
1.0
 70
   688
 72
     1
 73
     0
 74
     5
  7

 75
    16
147
1.0
148
0.0
149
0.0
100
AcDbLayout
  1
Layout1
 70
     1
 71
     1
 10
0.0
 20
0.0
 11
420.0
 21
297.0
 12
0.0
 22
0.0
 32
0.0
 14
1.0000000000E+20
 24
1.0000000000E+20
 34
1.0000000000E+20
 15
-1.0000000000E+20
 25
-1.0000000000E+20
 35
-1.0000000000E+20
146
0.0
 13
0.0
 23
0.0
 33
0.0
 16
1.0
 26
0.0
 36
0.0
 17
0.0
 27
1.0
 37
0.0
 76
     0
330
1B
  0
LAYOUT
  5
26
102
{ACAD_REACTORS
330
1A
102
}
330
1A
100
AcDbPlotSettings
  1

  2
none_device
  4

  6

 40
0.0
 41
0.0
 42
0.0
 43
0.0
 44
0.0
 45
0.0
 46
0.0
 47
0.0
 48
0.0
 49
0.0
140
0.0
141
0.0
142
1.0
143
1.0
 70
   688
 72
     1
 73
     0
 74
     5
  7

 75
    16
147
1.0
148
0.0
149
0.0
100
AcDbLayout
  1
Layout2
 70
     1
 71
     2
 10
0.0
 20
0.0
 11
0.0
 21
0.0
 12
0.0
 22
0.0
 32
0.0
 14
0.0
 24
0.0
 34
0.0
 15
0.0
 25
0.0
 35
0.0
146
0.0
 13
0.0
 23
0.0
 33
0.0
 16
1.0
 26
0.0
 36
0.0
 17
0.0
 27
1.0
 37
0.0
 76
     0
330
23
  0
LAYOUT
  5
22
102
{ACAD_REACTORS
330
1A
102
}
330
1A
100
AcDbPlotSettings
  1

  2
none_device
  4
ANSI_A_(11.00_x_8.50_Inches)
  6

 40
6.35
 41
19.05
 42
6.35000508
 43
19.05000254
 44
279.4
 45
215.9
 46
-423.7064887505
 47
-24.0303813699
 48
0.0
 49
0.0
140
0.0
141
0.0
142
0.2912773222
143
1.0
 70
  1696
 72
     0
 73
     0
 74
     0
  7

 75
     0
147
0.0179189148
148
-1300.4909072572
149
0.0
100
AcDbLayout
  1
Model
 70
     1
 71
     0
 10
0.0
 20
0.0
 11
420.0
 21
297.0
 12
0.0
 22
0.0
 32
0.0
 14
64.8585557938
 24
0.8190749451
 34
0.0
 15
85.7289156824
 25
29.7090686329
 35
0.0
146
0.0
 13
0.0
 23
0.0
 33
0.0
 16
1.0
 26
0.0
 36
0.0
 17
0.0
 27
1.0
 37
0.0
 76
     0
330
1F
331
29
  0
MLINESTYLE
  5
18
102
{ACAD_REACTORS
330
17
102
}
330
17
100
AcDbMlineStyle
  2
Standard
 70
     0
  3

 62
   256
 51
90.0
 52
90.0
 71
     2
 49
0.5
 62
   256
  6
BYLAYER
 49
-0.5
 62
   256
  6
BYLAYER
  0
ACDBPLACEHOLDER
  5
F
102
{ACAD_REACTORS
330
E
102
}
330
E
  0
SCALE
  5
48
102
{ACAD_REACTORS
330
47
102
}
330
47
100
AcDbScale
 70
     0
300
1:1
140
1.0
141
1.0
290
     1
  0
SCALE
  5
49
102
{ACAD_REACTORS
330
47
102
}
330
47
100
AcDbScale
 70
     0
300
1:2
140
1.0
141
2.0
290
     0
  0
SCALE
  5
4A
102
{ACAD_REACTORS
330
47
102
}
330
47
100
AcDbScale
 70
     0
300
1:4
140
1.0
141
4.0
290
     0
  0
SCALE
  5
4B
102
{ACAD_REACTORS
330
47
102
}
330
47
100
AcDbScale
 70
     0
300
1:5
140
1.0
141
5.0
290
     0
  0
SCALE
  5
4C
102
{ACAD_REACTORS
330
47
102
}
330
47
100
AcDbScale
 70
     0
300
1:8
140
1.0
141
8.0
290
     0
  0
SCALE
  5
4D
102
{ACAD_REACTORS
330
47
102
}
330
47
100
AcDbScale
 70
     0
300
1:10
140
1.0
141
10.0
290
     0
  0
SCALE
  5
4E
102
{ACAD_REACTORS
330
47
102
}
330
47
100
AcDbScale
 70
     0
300
1:16
140
1.0
141
16.0
290
     0
  0
SCALE
  5
4F
102
{ACAD_REACTORS
330
47
102
}
330
47
100
AcDbScale
 70
     0
300
1:20
140
1.0
141
20.0
290
     0
  0
SCALE
  5
50
102
{ACAD_REACTORS
330
47
102
}
330
47
100
AcDbScale
 70
     0
300
1:30
140
1.0
141
30.0
290
     0
  0
SCALE
  5
51
102
{ACAD_REACTORS
330
47
102
}
330
47
100
AcDbScale
 70
     0
300
1:40
140
1.0
141
40.0
290
     0
  0
SCALE
  5
52
102
{ACAD_REACTORS
330
47
102
}
330
47
100
AcDbScale
 70
     0
300
1:50
140
1.0
141
50.0
290
     0
  0
SCALE
  5
53
102
{ACAD_REACTORS
330
47
102
}
330
47
100
AcDbScale
 70
     0
300
1:100
140
1.0
141
100.0
290
     0
  0
SCALE
  5
54
102
{ACAD_REACTORS
330
47
102
}
330
47
100
AcDbScale
 70
     0
300
2:1
140
2.0
141
1.0
290
     0
  0
SCALE
  5
55
102
{ACAD_REACTORS
330
47
102
}
330
47
100
AcDbScale
 70
     0
300
4:1
140
4.0
141
1.0
290
     0
  0
SCALE
  5
56
102
{ACAD_REACTORS
330
47
102
}
330
47
100
AcDbScale
 70
     0
300
8:1
140
8.0
141
1.0
290
     0
  0
SCALE
  5
57
102
{ACAD_REACTORS
330
47
102
}
330
47
100
AcDbScale
 70
     0
300
10:1
140
10.0
141
1.0
290
     0
  0
SCALE
  5
58
102
{ACAD_REACTORS
330
47
102
}
330
47
100
AcDbScale
 70
     0
300
100:1
140
100.0
141
1.0
290
     0
  0
SCALE
  5
59
102
{ACAD_REACTORS
330
47
102
}
330
47
100
AcDbScale
 70
     0
300
1/128" = 1'-0"
140
0.0078125
141
12.0
290
     0
  0
SCALE
  5
5A
102
{ACAD_REACTORS
330
47
102
}
330
47
100
AcDbScale
 70
     0
300
1/64" = 1'-0"
140
0.015625
141
12.0
290
     0
  0
SCALE
  5
5B
102
{ACAD_REACTORS
330
47
102
}
330
47
100
AcDbScale
 70
     0
300
1/32" = 1'-0"
140
0.03125
141
12.0
290
     0
  0
SCALE
  5
5C
102
{ACAD_REACTORS
330
47
102
}
330
47
100
AcDbScale
 70
     0
300
1/16" = 1'-0"
140
0.0625
141
12.0
290
     0
  0
SCALE
  5
5D
102
{ACAD_REACTORS
330
47
102
}
330
47
100
AcDbScale
 70
     0
300
3/32" = 1'-0"
140
0.09375
141
12.0
290
     0
  0
SCALE
  5
5E
102
{ACAD_REACTORS
330
47
102
}
330
47
100
AcDbScale
 70
     0
300
1/8" = 1'-0"
140
0.125
141
12.0
290
     0
  0
SCALE
  5
5F
102
{ACAD_REACTORS
330
47
102
}
330
47
100
AcDbScale
 70
     0
300
3/16" = 1'-0"
140
0.1875
141
12.0
290
     0
  0
SCALE
  5
60
102
{ACAD_REACTORS
330
47
102
}
330
47
100
AcDbScale
 70
     0
300
1/4" = 1'-0"
140
0.25
141
12.0
290
     0
  0
SCALE
  5
61
102
{ACAD_REACTORS
330
47
102
}
330
47
100
AcDbScale
 70
     0
300
3/8" = 1'-0"
140
0.375
141
12.0
290
     0
  0
SCALE
  5
62
102
{ACAD_REACTORS
330
47
102
}
330
47
100
AcDbScale
 70
     0
300
1/2" = 1'-0"
140
0.5
141
12.0
290
     0
  0
SCALE
  5
63
102
{ACAD_REACTORS
330
47
102
}
330
47
100
AcDbScale
 70
     0
300
3/4" = 1'-0"
140
0.75
141
12.0
290
     0
  0
SCALE
  5
64
102
{ACAD_REACTORS
330
47
102
}
330
47
100
AcDbScale
 70
     0
300
1" = 1'-0"
140
1.0
141
12.0
290
     0
  0
SCALE
  5
65
102
{ACAD_REACTORS
330
47
102
}
330
47
100
AcDbScale
 70
     0
300
1-1/2" = 1'-0"
140
1.5
141
12.0
290
     0
  0
SCALE
  5
66
102
{ACAD_REACTORS
330
47
102
}
330
47
100
AcDbScale
 70
     0
300
3" = 1'-0"
140
3.0
141
12.0
290
     0
  0
SCALE
  5
67
102
{ACAD_REACTORS
330
47
102
}
330
47
100
AcDbScale
 70
     0
300
6" = 1'-0"
140
6.0
141
12.0
290
     0
  0
SCALE
  5
68
102
{ACAD_REACTORS
330
47
102
}
330
47
100
AcDbScale
 70
     0
300
1'-0" = 1'-0"
140
12.0
141
12.0
290
     0
  0
ENDSEC
  0
EOF
